Song name
# A B C D E F G H I J K L M N O P Q R S T U V W X Y Z

Misc Unsigned Bands - Symphzero - Drawl tab

---------------------------------------|
---------------------------------------|
-------0-4-2-3-------------------------|
-----2--------------------3------------|
-0-3-------------------1-3--4-3--------|
------------------1-1/4----------------|

---------------------------------------|
---------------------------------------|
----------5-0--------------------------|
--------3----2-2/5-3-------------------|
------3--------------------------------|
-1/4-----------------------------------|
Tap to rate this tab
# A B C D E F G H I J K L M N O P Q R S T U V W X Y Z