Song name
# A B C D E F G H I J K L M N O P Q R S T U V W X Y Z

Misc Unsigned Bands - A Line Too Late - When Scars Dont Fade tab

Rhythm Guitar
Tuning - Drop D
Key - *=Palm mute

INTRO (Strumming pattern is easily figured out)

--------------------|
--------------------|
--------------------|   (x3)
4----6----8----4----|
4----6----8----4----|
2----4----6----2----|

VERSE 1

--------------------|
--------------------|
--------------------|
2----6----9----4----|   (Ring these notes out)
2----6----9----4----|
2----6----9----4----|

-----------------------------|
-----------------------------|    (x4)
-----------------------------|
222222222222--6666666--44----|
222222222222--6666666--44----|
222222222222--6666666--44----|
** *  * **    ** *  *


CHORUS - Same as Intro

VERSE 2 - Same as Verse 1

BRIDGE - Play intro/chorus chords x2

CHORUS
Tap to rate this tab
# A B C D E F G H I J K L M N O P Q R S T U V W X Y Z