Song name
# A B C D E F G H I J K L M N O P Q R S T U V W X Y Z

Misc Unsigned Bands - A Line Too Late - Ineadequate tab

Rhythm Guitar
Tuning - Drop D
Key - /=Slide *=Palm Mute

INTRO (strumming pattern is easily figured out)

-----------------------|
-----------------------|
-----------------------|
--5----8----3----1--3--|     (x2)
--5----8----3----1--3--|
--5----8----3----1--3--|

VERSE 1


----------------------------------------------------|
----------------------------------------------------|
----------------------------------------3/5-5-5\3---|
555555555--55555555--33333333--1111111--x-x-x-x-x---|   (x2)
555555555--55555555--33333333--1111111--1/3-3-3\1---|
555555555--55555555--33333333--1111111--------------|
*********  ********  ********  *******

(Repeat again x2 without palm mutes)


CHORUS - Same as Intro

VERSE 2 - Same as Verse 1

CHORUS

BRIDGE

--------------------------------------------|
--------------------------------------------|
--------------------------------------------|
--------------------------------------------|
5----5----5----5----5----5----5----55555555-|
5----5----5----5----5----5----5----55555555-|
5----5----5----5----5----5----5----55555555-|
                                   ********
Ring notes out


-----------------------------------------------|
-----------------------------------------------|
-----------------------------------------------|   (x4)
555--888--555--888--555--8881111111------------|
555--888--555--888--555--8881111111------------|
555--888--555--888--555--8881111111------------|

Chorus (x2)
Tap to rate this tab
# A B C D E F G H I J K L M N O P Q R S T U V W X Y Z