Song name
# A B C D E F G H I J K L M N O P Q R S T U V W X Y Z

Misc Unsigned Bands - Black Ft Malique - Teman Pengganti tab

BLACK FT MALIQUE - Teman Pengganti



Key:

^  - bend
^^ - full bend
h  - hammer on
p  - pull off
r  - release bend
/  - slide down
\  - slide up
~  - vibrato
() - finger tap




INTRO:

                     Gm                           Gm
e|------------------------------------------------------------------------|
B|-------------------11~---10-11-10-11~-----------11~---10-11-10-11~------|
G|------------------------------------------------------------------------|
D|---------------/12------------------------/12---------------------------|
A|------4-----------------------------------------------------------------|
E|--4-4-------------------------------------------------------------------|


            Cm                       F                      F
e|---------------------------------------------------------------------------|
B|--11-10-8------------------------------------------------------------------|
G|--X-------10---8h10p8-7-8~-----/12-10----------10-----/12-10----------10---|
D|--X-----------------------------------10-12-13---------------10-12-13------|
A|---------------------------------------------------------------------------|
E|---------------------------------------------------------------------------|


                 A#                     D
e|-----------------------------------------------|
B|-----------------------------------------------|
G|--8h10p8-7----7/8-----7h8p7-5-7---5-3-2~-------|
D|-----------10----------------------------------|
A|-----------------------------------------------|
E|-----------------------------------------------|



Gm
Ketawa bersama

    Cm
Menangis bersama

       F
Ku bersumpah harap kita

         A#   D
Mati pun bersama



Gm  Cm  F  A# D

Sejak dua menjak ini
Makin kerap ku diganggu visi
Bila celik, juga bila mimpi
Aku nampak kau, tapi bukan aku yang di sisi
Dia membelaimu dengan izin dan permisi
Sentuhan katanya semuanya kau iakan
Sentuhan jari kau diamkan dan biarkan
Aku redha walau tidak ku damba
Walau hampa semuanya dah dijangka

Beberapa purnama dulu cinta bertahta
Kenangan dibina kita indah belaka
Ketawa bersama, menangis bersama
Ku bersumpah harap kita mati pun bersama
Namun hakikatnya, bukan mudah
Aku sembunyikan gulana-gundah
Segalanya kan berubah
Dengarkan apa yang ku mahu luah


Gm
Rahsia ini

               Cm
Telah lama aku pendamkan

F
Tiba masanya segala-galanya

       A#  D
Ku ceritakan

Gm
Aku kan pergi

                  Cm
Pergi ku tak akan kembali

F
Tiba masanya

                   A#  D
Kau cari teman pengganti



Gm  Cm  F  A# D

Dalam dunia yang maya, prejudis dan bias
Kita tak terlepas dari terkena tempias
Rimas, ditindas, sembunyi dalam puisi dan kias
Tidak kau bidas, tak berpaling walau sekilas
Hanya kau yang tahu kodeksku yang kompleks
Dalam disleksia cuba kekal dalam konteks
Bila dunia seolah tak memahami
Kau sudi selami, dalami dan mengalami

Setia mendengar, sentiasa hadir
Ingat setiap ulangtahun, setiap hari lahir
Tiba pagi Syawal, kaulah yang terawal
Syawal yang terakhir ini pasti rasa janggal
70 000 hijab harus ku singkap
Ku sorok kitab balik tingkap penjara hinggap
Dalam diam ada, seorang yang ku puja
Kau teristimewa tapi dia yang sempurna


Gm
Rahsia ini

               Cm
Telah lama aku pendamkan

F
Tiba masanya segala-galanya

       A#  D
Ku ceritakan

Gm
Aku kan pergi

                  Cm
Pergi ku tak akan kembali

F
Tiba masanya

                   A#  D
Kau cari teman pengganti



Gm  Cm  F  A# D

Sejak dua menjak ini, ku mencari fungsi kewujudan
Dalam persekitaran yang penuh kejumudan
Terperangkap dalam jasad, ku keliru
Mujur ada kau si peneutralisasi pilu
Namun aku tetap murung, berkurung
Tubuh makin susut, menunggu tarikh luput
Komplikasi di halaman rusuk kiri
Makin sukar nak bernafas, nak bergerak, nak berdiri

Lagu ini yang terakhir aku sajikan
Kalau rindu nanti bolehlah kau nyanyikan
Jaga diri, jangan makan hati
Yang patah kan tumbuh, yang hilang kan berganti
Bilik dah ku kemas, katil dah ku rapi
Cincin, kunci, dompet dalam laci
Ada sikit wang, itu saja baki
Moga-moga cukup untuk majlis itu nanti


Gm
Aku kan pergi

                Cm
Bertemu kekasih abadi

F
Tiba masanya

                   A#  D
Kau cari teman pengganti




Guitar Tabs & Chords by rizalwahap
Tap to rate this tab
# A B C D E F G H I J K L M N O P Q R S T U V W X Y Z