Song name
# A B C D E F G H I J K L M N O P Q R S T U V W X Y Z

Misc Unsigned Bands - Elvis Depressedly - Kill Me Mickey tab

-------------------------------------------------------------------------------
                             Kill Me, Mickey - Elvis Depressedly
-------------------------------------------------------------------------------


Tuning:Capo 3rd fret

I tabbed it so that it sounds decent when played and sung with only an acoustic
guitar. It's not how it's recorded.



Here are the chords in order how I play it. Figure it out.

First time

e|-----------------------------------------------------|
B|-----------------------------------------------------|
G|--2---1---2--1----2------4--2--4--2---2-----2-----1--|
D|--0---0---0--0----2------0--0--0--0---2-----0-----0--|
A|--0---0---0--0----0------0--0--0--0---0-----------2--|
E|------------------0-------------------0-----2-----0--|

Second time
e|--0---0---0--0----0------0--0--0--0---0-----0--|
B|--3---3---3--3----0------0--3--0--3---2-----2--|
G|--2---1---2--1----2------4--2--4--2---2-----2--|
D|--0---0---0--0----2------0--0--0--0---2-----0--|
A|--0---0---0--0----0------0--0--0--0---0-----0--|
E|------------------0-------------------0-----2--|


Lyrics:
Kill me, Mickey. I want to die
I've been waiting such a long, long time.
x4
Tap to rate this tab
 
# A B C D E F G H I J K L M N O P Q R S T U V W X Y Z