Song name
# A B C D E F G H I J K L M N O P Q R S T U V W X Y Z

Misc Unsigned Bands - Mike Lisi - Arc Of Sorrow chords

Highlighted       Show chord diagrams
Capo 4        Standard tuning

e|-----------------------------------------------------------1------------|
B|------------------------------------------1-----0-----3--------3--------|
G|---------------------------2------0------0-----0-----0----0---0---2-----|
D|-----3------2------0------0------0--------------------------------------|
A|----0------3------1-----------------------------------------------------|
E|------------------------------------------------------------------------|

e|-----1---1---1---0---0---0---1---1---1---0---0---0-----------|
B|----3---3---3---3---3---3---3---3---3---3---3---3------------|  Strum Dm
G|---2---2---2---2---2---2---2---2---2---2---2---2-------------|
D|-------------------------------------------------------------|
A|-------------------------------------------------------------|
E|-------------------------------------------------------------|

Dm    Am   E   Am   Dm   Am   E    repeat then gradually slow down


Am                      Dm
Mankind is running rest assured not in circles
      Am                                  E
We're heading towards something that will certainly stop us
        Am                              
But for now we're like moths gravitating
   E                      Am
To Porch lights of our own creating
          Am                       E                   Dm
After our industrious black clouds have blocked out the moon

Am    Dm    Am    E    Pick up pace

Am                      Dm
Lest we forget that at one point we foraged
Am                    E
We were convinced the world was flat
        Am                   Dm
Yes at one point in time everybody on Earth
    Am           
Was wrong about the same thing
E                   Am
Mark my words it'll happen again
       Dm                 Am
If it isn't right no-o-o-o-w

Am  Dm  E  Am   even faster

         Dm
Don't be bothered that we're all just 
Am         
Dirt in it's larval stages
E                              Am
We're smears and smudges we're not even stains
Dm                           Am
Only those who find humor in life's little mishaps
E                                 Am
Will win in the long run if there is such a thing

Am  Dm  E  Am
Oh if they can get past the         [silence guitar after ;]

Am         E          Dm           Am
Cannibals; criminals; claws in the sky
Am            E          Dm          Am
Fountains; of fire; that burn us all alive
Am                     E              Dm       Am
The Congress; can't control us; their laws are awry
             Am             E              Dm             Am
They're like mountains; but higher; yet to climb them we strive

Am;   E;   Dm;   Am;   E;   Dm;   Am      slow back down

Am                                 E
If there is a god after all we'll just have to make up
               Dm                       Am           Fm
But if there's no one at all then we're shit out of l-u-u-ck


Am   C    Am   Fm    Am    C    Am    Fm    repeat out
Tap to rate this tab
# A B C D E F G H I J K L M N O P Q R S T U V W X Y Z