Song name
# A B C D E F G H I J K L M N O P Q R S T U V W X Y Z

Misc Unsigned Bands - Hiatus Kaiyote - Mobius Streak tab

This is from Nai Palm's acoustic version. It's my first time putting tab up, but I 
couldn't find it anywhere online! Such a beautiful song...
Please feel free to make suggestions or put a more correct version up!
Sarah

E--------------10----------(x4)------------------------------8---------(x4)----|
B-----------------10-------------------------------------------8---------------|
G---------10---10---10-----------------------------------8---8--8--------------|
D-------7---------7----7-------------------------------5-------5--5------------|
A-----8--------------8-------------------------------6----------6--------------|
E--10------------------10--------------------------8--------------8------------|
              See how my harboured might.....    Is blowing away.....


E----------------------------------------------------------------|
B------5----------5---------7---------5---------7----------------|
G----5--5-------5--5------7--7------5--5------7--7---------------|
D---5----5----4-----4----7----7----5----5----7----7--------------|
A------------5---------------------------------------------------|
E--5--------------------7---------5---------7--------------------|
   Day       break     welts with a         mobi...


E--------6----(x4)-----------------------------------------|
B--------8-----------------------8-----(x2)----------------|
G-----7----7---------------------9----------------9--------|
D---8-------7-----------------9----9-------------9---------|
A--6------------------------10------10---------10----------|
E--------------------------8-------------------8-----------|
  ...us streak...           righteous for our......


E---10-------------------------------------------|
B---10-------------------------------------------|
G---10-------------------------------------------|
D---12-------------------------------------------|
A---12-----------5-8---7---5---------------------|
E---10--------1-5--------------5-3-1-------------|
          See how my harboured might.............


See how my harboured might is blowing away
He breaks my fall as dawning of daybreak
Welts with a mobius streak boundless and righteous for our
Magnolia seed surely thrive in the dark

Origami birds flock from my heart
Burst out in colour to wherever you are

Ancient sidekick tandem war elephant
Rest in my skin fit this
Try angels
Tap to rate this tab
# A B C D E F G H I J K L M N O P Q R S T U V W X Y Z