Song name
# A B C D E F G H I J K L M N O P Q R S T U V W X Y Z

Misc Unsigned Bands - Noah Guthrie - Adore tab

Capo 6

G*: 2xxx33
B7*: x212xx

Repeat this pretty much the whole song.

E|--------------3-----------------------------------------------------------|
B|-----3-----------3----------------------------1h3--1-----------0h1--0-----|
G|--------0--------------0-----0h2--0-----0----------------2----------------|
D|-----------0--------------1----------------2----------------2-------------|
A|--------------------2----------------3----------------0-------------------|
E|--3-----------------------------------------------------------------------|

Strum these chords on this line:
       Am      D        G
Cause I'm in love with you



When he says it the second time:

       Am      D        G
Cause I'm In love with you

G*  Em  B7*  C  D

G       G*    Em  B7*
Dance & dance move

            C
The way you move

            D   G
The way you move

G       G*    Em  B7*
Dance & dance move

            C
The way you move

             D
I'm moved by you

-Repeat Intro-

then


E|--------------3------------------------------------------------------------------|
B|-----3-----------3----------------------------1-----------1------------1p0-------|
G|--------0--------------0-----0h2--0--------------0-----------0-------------------|
D|-----------0--------------1----------------2-----------0------------0------------|
A|--------------------2----------------3--3-----------2------------0---------------|
E|--3------------------------------------------------------------------------------|

End on G


(h) Hammer On  (p) Pull Off
Tap to rate this tab
 
# A B C D E F G H I J K L M N O P Q R S T U V W X Y Z