Song name
# A B C D E F G H I J K L M N O P Q R S T U V W X Y Z

Misc Unsigned Bands - Dads - If Your Song Title Has The Word Beach In It Im Not Listening To It tab

Dads: If Your Song Title Has The Word Beach In It Im Not Listening To It
http://www.youtube.com/watch?v=1HuwcOZfNLY



                End 1     End 2     End 3

 e|----5-7p5---|--------|-5/7--7--|---7-10--|
 B|---7-----7-7|-5/7-5--|---------|---------|
 G|--7-------7-|----7-7-|----7--7-|-7--7--7-|
 D|-0----------|--------|---------|---------|
 A|------------|--------|---------|---------|
 D|------------|--------|---------|---------|
               Alternate between these endings

                        End 1        End 2        
e|-----5-7p5-----|-5-5-5-5---5-5-5-5--|------5-7-10-|
B|----7-----7----|--7-7-7-7-8-8-8-8---|-5/7---7-7---|
G|---7-----------|--------------------|----7--------|
D|--0---------0~-|--------------------|-------------|
A|------------0~-|--------------------|-------------|
E|------------0~-|--------------------|-------------|

After WHY CAN'T WE BLAME OURSELVES it's just a bunch of Ds
then...

      this                 or this       End on this
e|------------------|----------------5--|--5~------|
B|---7/8\7----------|----7/8\7----------|--x-------|
G|--------7-4-4-7-7-|---------7-4-4-7--7|--7~------|
D|-0---------7-7----|-0----------7-7----|--0~------|
A|------------------|-------------------|----------| 
D|------------------|-------------------|----------|
Tap to rate this tab
# A B C D E F G H I J K L M N O P Q R S T U V W X Y Z