Song name
# A B C D E F G H I J K L M N O P Q R S T U V W X Y Z

Misc Unsigned Bands - Scenery With Solace - Lifeless Crisis tab

Scenery With Solace - "Lifeless Crisis"
Tabbed by: Alex Miskell
Tuning: Drop B (B F# B E G# C#)

I'm going to do my best tabbing out the rhythms of the breakdown patterns.
The amount of notes are right, but the spacing might make the rhythms look sketchy 
for the breakdowns.

C#|-----------------------------------------|
G#|-----------------------------------------|
E |-----------------------------------------|
B |-----------------------------------------|
F#|0000-0-0000-0-0000-0000-0000-0-0-0-0-0000|
B |1111-1-1111-1-1111-1111-1111-1-1-1-1 1111|
Intro breakdown - repeat 4 times.

C#|-----------------------------------------|
G#|-----------------------------------------|
E |-----------------------------------------|
B |-----------------------------------------|
F#|0000-0-0000-0-0000-0000-0000-0-0-0-0-0000|
B |0000-0-0000-0-0000-0000-0000-0-0-0-0-0000|
(0:14) - switch to open chugs.

C#|-------------------------------|
G#|-------------------------------|
E |-------------------------------|
B |-------------------------------|
F#|0-0000-0-0000-0000-0-0-0-0-0000|
B |1-1111-1-1111-1111-1-1-1-1-1111|
(0:17) this pattern will alternate with the above pattern after each bar for the 
rest of the intro.

C#|--------------------------|
G#|--------------------------|
E |--------------------------|
B |----------------------(5)-|
F#|000-000-000---------------|
B |000-000-000---------------|
(0:38) - the (5) is a natural harmonic.

C#|---------------------------------------|
G#|---------------------------------------|
E |---------------------------------------|
B |---------------------------------------|
F#|---------10-8-7h8p7p0----------10-8-7h8|
B |00---8h12-------------00---8h12--0-0---|
(0:40)

C#|----------------|
G#|----------------|
E |----------------|
B |----------------|
F#|5555778844448877|
B |----------------|
(0:45)

C#|----------------|
G#|----------------|
E |----------------|
B |3333557722227755|
F#|----------------|
B |----------------|
(0:52) harmonized w/ the guitar part above

C#|-------------------|
G#|-------------------|
E |-------------------|
B |-----------7-------|
F#|5-----7-8--7---8-7-|
B |5-777-7-8--4---8-7-|
(1:01)

C#|----------------------------------|
G#|----------------------------------|
E |----------------------------------|
B |----------------------------------|
F#|0000-0000-------------5h7p5p0-1/4-|
B |0000-0000--8--7--00-00------------|
(1:03)

C#|----------------------------13|
G#|--------------------------10--|
E |----------------------7/10----|
B |------------------------------|
F#|0000-0000---------------------|
B |0000-0000--8--7--00-00--------|

C#|------------------------------------|
G#|------------------------------------|
E |------------------------------------|
B |------------------------------------|
F#|0000-0000-------------5h7p5p0-------|
B |0000-0000--8--7--00-00-------1h4p1p0|

C#|--------------------------|
G#|--------------------------|
E |--------------------------|
B |--------------------------|
F#|0000-0000--------0-0-0-0-0|
B |0000-0000--8--7--0-0-1-1-1|

C#|---------------------------------------|
G#|---------------------------------------|
E |---------------------------------------|
B |---------------------------------------|
F#|0000-0000--0-0---00-00-0000-0-0-0-0-0-0|
B |0000-0000--0-0---00-00-0000-0-0-0-0-0-0|
(1:17)

C#|-----------------|
G#|-----------------|
E |-----------------|
B |-----------------|
F#|00-00-0-0-0-0-0-0|
B |00-00-1-1-1-0-0-0|
(1:30) the breakdown ends with this.


C#|----------------------------|
G#|----------------------------|
E |----------------------------|
B |----------------7-----------|
F#|------10\8-----8-8-0-000-000|
B |0h8h12----0h7h8----0-000-000|
(1:34)

C#|-----------------------------|
G#|-----------------------------|
E |-----------------------------|
B |----------------10-----------|
F#|------10\8-----8--8-0-000-7h8|
B |0h8h12----0h7h8-----0-000----|

C#|----------------------------|
G#|----------------------------|
E |----------------------------|
B |----------------7-----------|
F#|------10\8-----8-8-0-000-000|
B |0h8h12----0h7h8----0-000-000|

C#|---------------------------------|
G#|---------------------------------|
E |----------------------------9h10-|
B |----------------10------10p7-----|
F#|------10\8-----8--8-0-0----------|
B |0h8h12----0h7h8-----0-0----------|

C#|-------------------------------|
G#|-------------------------------|
E |-------------------------------|
B |-------------------------------|
F#|------10\8--7-8--000--0-000-000|
B |0h8h12----0-7-8--000--0-000-000|
(2:00) this pattern switches up here.

C#|---------------------------------|
G#|---------------------------------|
E |---------------------------------|
B |---------------------------------|
F#|------10\8-------0-------00000000|
B |0h8h12----0h7-8--0-00-00-00000000|
repeat the above two bars twice.

C#|----------------------------------------|
G#|----------------------------------------|
E |----------------------------------------|
B |----------------------------------------|
F#|0000-0000-0-00-00-0000-0000-0-0-0-0-0000|
B |0000-0000-0-00-00-0000-0000-0-0-0-0-0000|
(2:19) this breakdown pattern switches up to the 1-0 chord at 2:32 and then back 
to open again at 2:39

C#|--------------|
G#|--------------|
E |--------------|
B |--------------|
F#|-----0h5h7p5p0|
B |0h5h7---------|
(2:42) this little fill is in the breakdown.

C#|----------------------------------|
G#|----------------------------------|
E |----------------------------------|
B |----------------------------------|
F#|5-4-5-7---8-7-8-12---10h12-10-12-4|
B |----------------------------------|
(2:47) solo

C#|---------------0---8--8--12----15----|
G#|----------------6---6--6---13----13--|
E |-----------------7---7--7----14----14|
B |-----0--2-3/5/7----------------------|
F#|0-1-4-4------------------------------|
B |-------------------------------------|

C#|--------------------------------------------------------|
G#|----------------------------------------------17--------|
E |--------------------------------------------17--17-12/14|
B |-----7--7\5------------------7-----------14-------------|
F#|-5h8--8-----0h4h5---7h8--5h8--8-0-0-12h17---------------|
B |0---0--0---0------0-----0---0---0-0---------------------|
(3:00)

C#|-----------------------------------------------------|
G#|-----------------------------------------------------|
E |-----------------------------------------------------|
B |-----7--7\5----------------------7-----------0h3p0---|
F#|-5h8--8-----0h4h5---7h8p7p0--5h8--8-0-0-0h1h4-----4p0|
B |0---0--0---0-------0--------0---0---0-0--------------|
repeat both of these bars twice

C#|--------------------------------------------------------|
G#|--------------------------------------------------------|
E |--------------------------------------------------------|
B |--------------------------------------------0h1h4p1p0---|
F#|-----0h1p0--------0h1h4p1p0-------0h1p0--------------1/4|
B |0h1h4-----4p0--1h4-----------0h1h4-----4p0--------------|
(3:19) repeat this until 3:38

C#|---------------------------------------------------|
G#|---------------------------------------------------|
E |---------------------------------------------------|
B |----------------------------------------0h1h4-0h4h5|
F#|-----0h1p0------000--000-------0h1p0-0-0-----0-----|
B |0h1h4-----4p0---000--000--0h1h4------0-0-----0-----|
(3:38) the riff changes up here.

C#|------------------------------------------------------|
G#|------------------------------------------------------|
E |------------------------------------------------------|
B |-------------------------------------------0h1h4-0h4h5|
F#|-----0h1p0------0-0-0-0-0-0-------0h1p0-0-0-----0-----|
B |0h1h4-----4p0---1-1-1-1-1-1--0h1h4------0-0-----0-----|
repeat these above two patterns for the rest of the song.
Tap to rate this tab
# A B C D E F G H I J K L M N O P Q R S T U V W X Y Z