Song name
# A B C D E F G H I J K L M N O P Q R S T U V W X Y Z

Misc Unsigned Bands - Dawn Of The Rebellion - Not Afraid To Die tab

Dawn Of The Rebellion:

Uprising EP:

Track 2:
Not Afraid To Die.




Intro:

Guitar 1:

D: -----------------------------------------------------------|
A: -----------------------------------------------------------|
F: -----------------------------------------------------------|
C: 4~~~~~~~-----------------------4~~~~~~~~~~-----------------|
G: 4~~~~~~~-----------------------4~~~~~~~~~~-----------------|
C: 4~~~~~~~-----------------------4~~~~~~~~~~-----------------|

                                                                 (x2)

D: -----------------------------------------------------------|
A: -----------------------------------------------------------|
F: -----------------------------------------------------------|
C: 0~~~~~~~~~---------------------2~~~~~~~~~~~----------------|
G: 0~~~~~~~~~---------------------2~~~~~~~~~~~----------------|
C: 0~~~~~~~~~---------------------2~~~~~~~~~~~----------------|


Guitar 2:

D: -----------------------------------------------------------|
A: -----------------------------------------------------------|
F: -----------------------------------------------------------|
C: --7-6---9-7-6h7p6----------------7-6---9-7-6---------------|
G: ------7----------7-------------------7-------7-5~~~--------|
C: 44-4-4-4-4-4-------------------44-4-4----------------------|
    * * * * * *                    * * *    * * *
                                                                 (x2)

D: -----------------------------------------------------------|
A: -----------------------------------------------------------|
F: -----------------------------------------------------------|
C: --7-6---9-7-6h7p6--------------/7-6---9-7-6----------------|
G: ------7----------7------------------7-------7-5~~~---------|
C: 00-0-0-0-0-0------------------2----------------------------|
    * * * * * *




Verse:

Both guitars:


D: -----------------------------------------------------------|
A: -----------------------------------------------------------|
F: -----------------------------------------------------------|
C: --7-6---9-7-6h7p6----------------7-6---9-7-6---------------|
G: ------7----------7-------------------7-------7-5~~~--------|
C: 44-4-4-4-4-4-------------------44-4-4----------------------|
    * * * * * *                    * * *    * * *
                                                                 (x2)

D: -----------------------------------------------------------|
A: -----------------------------------------------------------|
F: -----------------------------------------------------------|
C: --7-6---9-7-6h7p6--------------/7-6---9-7-6----------------|
G: ------7----------7------------------7-------7-5~~~---------|
C: 00-0-0-0-0-0------------------2----------------------------|
    * * * * * *

(on the repeat)

guitar 2 harmonizes:

D: -----------------------------------------------------------|
A: -----------------------------------------------------------|
F: --6-4---7-6-4h6p4--------------/6-4---7-6-4----------------|
C: ------7----------7------------------7-------7-6~~~---------|
G: -----------------------------------------------------------|
C: 00-0-0-0-0-0------------------2----------------------------|
    * * * * * *



Chorus:

Both guitars:


D: -----------------------------------------------------------|
A: -----------------------------------------------------------|
F: ----------------------------6------------------------------|
C: 4------7------6------7------4------7-------6------7--------|
G: 4(x4)--4(x4)--4(x4)--4(x3)--4(x4)--4(x4)---4(x4)--4(x3)----|
C: 4------4------4------4------4------4-------4------4--------|
                                                                 (x2)

D: -----------------------------------------------------------|
A: -----------------------------------------------------------|
F: ------14---------------------------14----------------------|
C: 0~00~-x-(x9)-----------------2~22~-x-(x9)------------------|
G: 0~00~-12---------------------2~22~-12----------------------|
C: 0~00~------------------------2~22~-------------------------|
     *                            *

(On the repeat, tremelo pick)

D: --------------------------------|
A: --------------------------------|
F: --------------6tr---------------|
C: 44-7tr-6tr-7tr----7tr-6tr-7tr---|
G: 44------------------------------|
C: 44------------------------------|


Verse:

Both guitars:


D: -----------------------------------------------------------|
A: -----------------------------------------------------------|
F: -----------------------------------------------------------|
C: --7-6---9-7-6h7p6----------------7-6---9-7-6---------------|
G: ------7----------7-------------------7-------7-5~~~--------|
C: 44-4-4-4-4-4-------------------44-4-4----------------------|
    * * * * * *                    * * *    * * *
                                                                 (x2)

D: -----------------------------------------------------------|
A: -----------------------------------------------------------|
F: -----------------------------------------------------------|
C: --7-6---9-7-6h7p6--------------/7-6---9-7-6----------------|
G: ------7----------7------------------7-------7-5~~~---------|
C: 00-0-0-0-0-0------------------2----------------------------|
    * * * * * *

(on the repeat)

guitar 2 harmonizes:

D: -----------------------------------------------------------|
A: -----------------------------------------------------------|
F: --6-4---7-6-4h6p4--------------/6-4---7-6-4----------------|
C: ------7----------7------------------7-------7-6~~~---------|
G: -----------------------------------------------------------|
C: 00-0-0-0-0-0------------------2----------------------------|
    * * * * * *



Chorus:

Both guitars:


D: -----------------------------------------------------------|
A: -----------------------------------------------------------|
F: ----------------------------6------------------------------|
C: 4------7------6------7------4------7-------6------7--------|
G: 4(x4)--4(x4)--4(x4)--4(x3)--4(x4)--4(x4)---4(x4)--4(x3)----|
C: 4------4------4------4------4------4-------4------4--------|
                                                                 (x2)

D: -----------------------------------------------------------|
A: -----------------------------------------------------------|
F: ------14---------------------------14----------------------|
C: 0~00~-x-(x9)-----------------2~22~-x-(x9)------------------|
G: 0~00~-12---------------------2~22~-12----------------------|
C: 0~00~------------------------2~22~-------------------------|
     *                            *


(On the repeat, tremelo pick)

D: --------------------------------|
A: --------------------------------|
F: --------------6tr---------------|
C: 44-7tr-6tr-7tr----7tr-6tr-7tr---|
G: 44------------------------------|
C: 44------------------------------|




Extended chord sequence:


F: --------------------------------------------------------|
A: --------------------------------------------------------|
D: --------------------------------------------------------|
C: 4~-----------4~--------------2~---0~-----------2~-------|     (x2)
G: 4~-----------4~--------------2~---0~-----------2~-------|
C: 4~-----------4~--------------2~---0~-----------2~-------|




pre-solo:

Guitar 1:


F: --------------------------------------------------------|
A: --------------------------------------------------------|
D: --------------------------------------------------------|
C: 44--7-7p6--44--6-6h7--444444--7-7p6--44--6-6h7--2~------|
G: 44---------44---------444444---------44---------2~------|
C: 44---4-----44---4-----444444---4-----44---4-----2~------|
   **   *     **   *     ******   *     **   *

F: --------------------------------------------------------|
A: --------------------------------------------------------|
D: --------------------------------------------------------|
C: 00--7-7p6--00--6-6h7--000022--7-7p6--22-/9~-6~~~--------|
G: 00---------00---------000022---------22-----------------|
C: 00---0-----00---0-----000022---2-----22-----------------|
   **   *     **   *     ******   *     **

Guitar 2:



F: --------------------------------------------------------|
A: --------------------------------------------------------|
D: --------------------------------------------------------|
C: 44---------44---------444444---------44---------2~------|
G: 44---------44---------444444---------44---------2~------|
C: 44---------44---------444444---------44---------2~------|
   **         **         ******         **

F: --------------------------------------------------------|
A: --------------------------------------------------------|
D: --------------------------------------------------------|
C: 00---------00---------000022---------22-/12~-9~~~-------|
G: 00---------00---------000022---------22-----------------|
C: 00---------00---------000022---------22-----------------|
   **         **         ******         **



Both guitars:


F: --------------------------------------------------------|
A: --------------------------------------------------------|
D: --------------------------------------------------------|
C: ---7-7p6---6-6h7-------7-7p6---6-6h7--------------------|
G: --------------------------------------------------------|
C: 44--4---44--4---4444~4--4---44--4----2~~----------------|
   **  *   **  *   * *  *

                                                              (x2)


F: --------------------------------------------------------|
A: -------------------------------------------guitar 2-----|
D: --------------------------------------------------------|
C: ---7-7p6---6-6h7-------7-7p6---/9~-6-----[--/12~-9--]---|
G: --------------------------------------------------------|
C: 00--0---0--0-----00~~22------22-------------------------|
   **  *   **  *    *   **      **





Solo:

Lead (Guitar 2)













Rhythm (Guitar 1)

D: -----------------------------------------------------------------|
A: -----------------------------------------------------------------|
F: -----------------------------------------------------------------|
C: 4~~4-444-444~~--4-444~~-4-444~~--4~~4-444-444~~--4-444~~-4-444~~-|
G: 4~~4-444-444~~--4-444~~-4-444~~--4~~4-444-444~~--4-444~~-4-444~~-|
C: 4~~4-444-444~~--4-444~~-4-444~~--4~~4-444-444~~--4-444~~-4-444~~-|
      * *** **     * **    * **        * *** **     * **    * **

                                                                    (x2)


F: -----------------------------------------------------------------|
A: -----------------------------------------------------------------|
D: -----------------------------------------------------------------|
C: 0~~0-000-000~~--0-000~~-0-000~~--2~~2-222-222~~--2-222~~-2-222~~-|
G: 0~~0-000-000~~--0-000~~-0-000~~--2~~2-222-222~~--2-222~~-2-222~~-|
C: 0~~0-000-000~~--0-000~~-0-000~~--2~~2-222-222~~--2-222~~-2-222~~-|
      * *** **     * **    * **        * *** **     * **    * **





Chorus:

Both guitars:


D: -----------------------------------------------------------|
A: -----------------------------------------------------------|
F: ----------------------------6------------------------------|
C: 4------7------6------7------4------7-------6------7--------|
G: 4(x4)--4(x4)--4(x4)--4(x3)--4(x4)--4(x4)---4(x4)--4(x3)----|
C: 4------4------4------4------4------4-------4------4--------|
                                                                 (x2)

D: -----------------------------------------------------------|
A: -----------------------------------------------------------|
F: ------14---------------------------14----------------------|
C: 0~00~-x-(x9)-----------------2~22~-x-(x9)------------------|
G: 0~00~-12---------------------2~22~-12----------------------|
C: 0~00~------------------------2~22~-------------------------|
     *                            *


(On the repeat, tremelo pick)

D: --------------------------------|
A: --------------------------------|
F: --------------6tr---------------|
C: 4~-7tr-6tr-7tr----7tr-6tr-7tr---|
G: 4~------------------------------|
C: 4~------------------------------|





Outro:

Both guitars:


D: -----------------------------------------------------------|
A: -----------------------------------------------------------|
F: -----------------------------------------------------------|
C: --7-6---9-7-6h7p6----------------7-6---9-7-6---------------|
G: ------7----------7-------------------7-------7-5~~~--------|
C: 44-4-4-4-4-4-------------------44-4-4----------------------|
    * * * * * *                    * * *    * * *


Guitar 1:



D: -----------------------------------------------------------|
A: -----------------------------------------------------------|
F: -----------------------------------------------------------|
C: --7~6~--9~7~6h7p6--------------7~~6~~---9~~7~~6~~----------|
G: ------7~---------7~~~----------------7~~---------7~~7/9~~~-|
C: 0~~~-------------------------2~~~--------------------------|



Guitar 2:



D: -----------------------------------------------------------|
A: -----------------------------------------------------------|
F: --6~4~--7~6~4h6p4--------------6~~4~~---7~~6~~4~~----------|
C: ------7~---------7~~~----------------7~~---------6~~6/7~~~-|
G: -----------------------------------------------------------|
C: 0~~~-------------------------2~~~--------------------------|





End with:

Both guitars:



D: ---------------------------------|
A: ---------------------------------|
F: ---------------------------------|
C: -------------4~~\----------------|
G: -------------4~~\----------------|
C: -------------4~~\----------------|





E N D.


Thanks.

First tab, for my band, incase any-one wanted to learn how to play it!


p.s. I play Guitar 1 ;3

If you like it, rate it!

Cheers.

Toby Masters (Guitarist/ vocalist)
Tap to rate this tab
 
# A B C D E F G H I J K L M N O P Q R S T U V W X Y Z