Song name
# A B C D E F G H I J K L M N O P Q R S T U V W X Y Z

Misc Unsigned Bands - Autoinfanticide - The Great Beyond tab

AEADGBE
Left Guitar
e|-------------------------|
B|-------------------------|
G|-------------------------|
D|-------------------------|
A|-------------------------|
E|---4'--3'------4'--3'----|
A|-1---0---4'-1---0-----4'-|

Right Guitar
e|--------------------------|
B|--------------------------|
G|--------------------------|
D|--------------------------|
A|-8----------7-------------|
E|--------------------------|
A|-6----------5-------------|

Both Guitars
e|-------------------------|
B|-------------------------|
G|-------------------------|
D|-------------------------|
A|-------------------------|
E|---4'--3'------4'--3'----|
A|-1---0---4'-1---0-----4'-|

Left
e|-------------------------|
B|-------------------------|
G|-------------------------|
D|-------------------------|
A|-------------------------|
E|---4'--3'------4'--3'----|
A|-1---0---4'-1---0-----4'-|

Right
e|-----------------------|
B|-----------------------|
G|-----------------------|
D|-----------------------|
A|-----------------------|
E|---7'--6'----7'--6'----|
A|-4---3---7'-4---3---7--|

Left
e|-------------------------------------------------|
B|-------------------------------------------------|
G|-------------------------------------------------|
D|-------------------------------------------------|
A|-------------------------------------------------|
E|-------------------------------------8'-7'-5'-4'-|
A|-0'-5'-8'-5'-4'-5'-4'-1'-0'-5'-8'-5'-------------|
   *  *  *  *  *  *  *  *  *  *  *  *
Right
e|-------------------------------------------------|
B|-------------------------------------------------|
G|-------------------------------------------------|
D|-------------------------------------------------|
A|-------------------------------------------------|
E|-------------------------------------8'-7'-5'-4'-|
A|-------------------------------------------------|

Both
e|-------------------------------------------------|
B|-------------------------------------------------|
G|-------------------------------------------------|
D|-------------------------------------------------|
A|-------------------------------------------------|
E|-------------------------------------8'-7'-5'-4'-|
A|-0'-5'-8'-5'-4'-5'-4'-1'-0'-5'-8'-5'-------------|
   *  *  *  *  *  *  *  *  *  *  *  *

Left
e|-------------------------------------------------|
B|-------------------------------------------------|
G|-------------------------------------------------|
D|-------------------------------------------------|
A|-------------------------------------------------|
E|-------------------------------------8'-7'-5'-4'-|
A|-------------------------------------------------|

Right
e|-------------------------------------------------|
B|-------------------------------------------------|
G|-------------------------------------------------|
D|-------------------------------------------------|
A|-------------------------------------------------|
E|-------------------------------------------------|
A|-------------------------------------------------|

-----------------------------------------------------
Left
e|-------------------------------------------------|
B|-------------------------------------------------|
G|-------------------------------------------------|
D|-------------------------------------------------|
A|-------------------------------------------------|
E|-------------------------------------------------|
A|-------------------------------------------------|

Right
e|-------------------------------------------------|
B|-------------------------------------------------|
G|-------------------------------------------------|
D|-------------------------------------------------|
A|-------------------------------------------------|
E|-------------------------------------8'-7'-5'-4'-|
A|-------------------------------------------------|

Left
e|-----------------------------------|
B|-----------------------------------|
G|-----------------------------------|
D|-----------------------------------|
A|-----------------------------------|
E|-----------------------------------|
A|------------8'-7'-5'-4'-8'-7'5'-4'-|

Right
e|-----------------------------------|
B|-----------------------------------|
G|-----------------------------------|
D|-----------------------------------|
A|-----------------------------------|
E|-----------------------------------|
A|-8'-7'5'-4'-8'-7-'5'-4'------------|

Both
e|--------------------------------------------------------------|
B|--------------------------------------------------------------|
G|--------------------------------------------------------------|
D|--------------------------------------------------------------|
A|--------------------------------------------------------------|
E|-1--------------------5--8--7--4----------------------4--5--4-|
A|-1----0-0-0-0-0-0-0-0-5--8--7--4----0-0-0-0-0-0-0-0-0-4--5--4-|
        * * * * * * * *               * * * * * * * * *
Both
e|----------|
B|----------|
G|----------|
D|----------|
A|-5~~~~~~~~|
E|-5~~~~~~~~|
A|-5~~~~~~~~|

Both
e|-----------------------------------------------------------------|
B|-----------------------------------------------------------------|
G|-----------------------------------------------------------------|
D|-----------------------------------------------------------------|
A|-----------------------------------------------------------------|
E|---------8-8-8-8-5-5-5-5-4-4-4-4-5-5-5-5-4-4-4-4-1-1-1-1-4-4-4-4-|
A|-5-5-5-5---------------------------------------------------------|

Both
e|---------------------------|
B|---------------------------|
G|-----------------------5h8-|
D|-------------------5h8-----|
A|---------------5h8---------|
E|-----------4h7-------------|
A|---------------------------|

Both
e|----------------------------------------------------------------------------|
B|----------------------------------------------------------------------------|
G|------------------------------------------------------------------------5h8-|
D|--------------------------------------------------------------------5h8-----|
A|----------------------------------------------------------------5h8---------|
E|-8p5----------------7p4-----------------8p5-----------------4h7-------------|
A|-----0-0-0-0-0-0-0-0----0-0-0-0-0-0-0-0-----0-0-0-0-0-0-0-0-----------------|
       * * * * * * * *    * * * * * * * *     * * * * * * * *
Left
e|----------------------------------------------------------------------------|
B|----------------------------------------------------------------------------|
G|------------------------------------------------------------------------5h8-|
D|--------------------------------------------------------------------5h8-----|
A|----------------------------------------------------------------5h8---------|
E|-8p5----------------7p4-----------------8p5-----------------4h7-------------|
A|-----0-0-0-0-0-0-0-0----0-0-0-0-0-0-0-0-----0-0-0-0-0-0-0-0-----------------|
       * * * * * * * *    * * * * * * * *     * * * * * * * *

Right
e|----------------------------------------------------------------|
B|----------------------------------------------------------------|
G|----------------------------------------------------------------|
D|----------------------------------------------------------------|
A|----------------------------------------------------------------|
E|-11p8-----------------10p7-----------------11p8-----------------|
A|------0-0-0-0-0-0-0-0------0-0-0-0-0-0-0-0------0-0-0-0-0-0-0-0-|

e|------------------|
B|------------------|
G|-------------8h11-|
D|---------8h11-----|
A|-----8h11---------|
E|-7h10-------------|
A|------------------|

Left
e|---------------------------|
B|---------------------------|
G|-----------------------5h8-|
D|-------------------5h8-----|
A|---------------5h8---------|
E|-----------4h7-------------|
A|---------------------------|

Right
e|------------------|
B|------------------|
G|-------------8h11-|
D|---------8h11-----|
A|-----8h11---------|
E|-7h10-------------|
A|------------------|

Left
e|-------------------|
B|-------------------|
G|-------------11h14-|
D|---------11h14-----|
A|-----11h14---------|
E|-10h13-------------|
A|-------------------|

Both
e|----------------------------------------------|
B|----------------------------------------------|
G|----------------------------------------------|
D|----------------------------------------------|
A|-------------------------------------------7'-|
E|---------5h8-4h7-5h8-4h7-------------8'-5'----|
A|----------------------------------------------|

Left
e|-------------------------------------------|
B|-------------------------------------------|
G|-------------------------------------------|
D|-------------------------------------------|
A|-------------------------------------------|
E|---------------------------5h8-4h7-5h8-4h7-|
A|-0-0-0--0-0-0----0-0-0--0------------------|
   * * *  * * *    * * *  *
Right
e|-------------------------------------------|
B|-------------------------------------------|
G|-------------------------------------------|
D|-------------------------------------------|
A|-------------------------------------------|
E|---------------------------5h8-4h7-5h8-4h7-|
A|-------------------------------------------|

Left
e|-----------------------------------|
B|-----------------------------------|
G|-----------------------------------|
D|-----------------------------------|
A|--------------------------------7'-|
E|--------------------------8'-5'----|
A|-----------------------------------|

Right
e|-----------------------------------|
B|-----------------------------------|
G|-----------------------------------|
D|-----------------------------------|
A|--------------------------------7'-|
E|---------------------------8'-5----|
A|-0-0-0--0-0-0----0-0-0--0----------|
   * * *  * * *    * * *  *
Both
e|-------------------------------------------|
B|-------------------------------------------|
G|-------------------------------------------|
D|-------------------------------------------|
A|-------------------------------------------|
E|---------------------------5h8-4h7-5h8-4h7-|
A|-0-0-0--0-0-0----0-0-0--0------------------|
   * * *  * * *    * * *  *

e|-----------------------------------|
B|-----------------------------------|
G|-----------------------------------|
D|-----------------------------------|
A|--------------------------------7'-|
E|---------------------------8'-5----|
A|-0-0-0--0-0-0----0-0-0--0----------|
   * * *  * * *    * * *  *
Both
e|---------------------------------------------|
B|---------------------------------------------|
G|---------------------------------------------|
D|---------------------------------------------|
A|-7'--------7'--------7'----------------------|
E|----8'-7'-----8'-7'-----8'-7'-5'-7'-5'-4'-5'-|
A|---------------------------------------------|

Center
e|-----------------------|
B|-----------------------|
G|-----------------------|
D|-----------------------|
A|-----------------------|
E|---4'--3'------4'--3'--|
A|-1---0---4'-1---0---4'-|

Both
e|------------------------|
B|------------------------|
G|------------------------|
D|------------------------|
A|------------------------|
E|---4'--3'------4'--3'---|
A|-1---0---4'-1---0----4'-|

Both
e|----||
B|----||
G|----||
D|----||
A|----||
E|----||
A|-0--||


* - Palm Mute
'Tremolo
Tap to rate this tab
# A B C D E F G H I J K L M N O P Q R S T U V W X Y Z