Song name
# A B C D E F G H I J K L M N O P Q R S T U V W X Y Z

Misc Unsigned Bands - Forget About Tomorrow - Deep End tab

-----------------------------------------------------------------------------
                         Deep End - Forget About Tomorrow
-----------------------------------------------------------------------------

e|--------------------------|X4
B|--------------------------|
G|--x5--x54444444455555555--|
D|77x-55x-------------------|
A|77x355x32222222233333333--|
E|55--33--------------------|

e|----------------------------------------------|X2
B|----------------------------------------------|
G|----------------------------------------------|
D|----------------------------------------------|
A|----------------------------------------------|
E|55555555333333330000000011111111--------------|

e|----------------------------------------------|X2
B|----------------------------------------------|
G|----------------------------------------------|
D|----------------------------------------------|
A|77777777555555552222222233333333--------------|
E|55555555333333330000000011111111--------------|

e|-------------------------------------------------------------------|
B|-------------------------------------------------------------------|
G|-555555555555555577777777777777------------------------------------|
D|-5555555555555555777777777777772~33333333333333333333333333333333--|
A|-3333333333333333555555555555552~33333333333333333333333333333333--|
E|-------------------------------0~11111111111111111111111111111111--|

e|-------------------------------------------------------------------|
B|-------------------------------------------------------------------|
G|555555555555555577777777777777-------------------------------------|
D|5555555555555555777777777777772~33333333333333223333333355555555---|
A|3333333333333333555555555555552~33333333333333223333333355555555---|
E|------------------------------0~11111111111111001111111133333333---|

e|-------------------------------------------------------------------|
B|-------------------------------------------------------------------|
G|555555555555555577777777777777-------------------------------------|
D|5555555555555555777777777777772~333333333333333333333333-----------|
A|3333333333333333555555555555552~333333333333333333333333-----------|
E|------------------------------0~111111111111111111111111-----------|

Bass/Drums only (4 measures)

e|--------------------------|X1
B|--------------------------|
G|--x5--x54444444455555555--|
D|77x-55x-------------------|
A|77x355x32222222233333333--|
E|55--33--------------------|

e|----------------------------------------------|X2
B|----------------------------------------------|
G|----------------------------------------------|
D|----------------------------------------------|
A|----------------------------------------------|
E|55555555333333330000000011111111--------------|

e|----------------------------------------------|X2
B|----------------------------------------------|
G|----------------------------------------------|
D|----------------------------------------------|
A|77777777555555552222222233333333--------------|
E|55555555333333330000000011111111--------------|

e|-------------------------------------------------------------------|
B|-------------------------------------------------------------------|
G|-555555555555555577777777777777------------------------------------|
D|-5555555555555555777777777777772~33333333333333333333333333333333--|
A|-3333333333333333555555555555552~33333333333333333333333333333333--|
E|-------------------------------0~11111111111111111111111111111111--|

e|-------------------------------------------------------------------|
B|-------------------------------------------------------------------|
G|555555555555555577777777777777-------------------------------------|
D|5555555555555555777777777777772~33333333333333223333333355555555---|
A|3333333333333333555555555555552~33333333333333223333333355555555---|
E|------------------------------0~11111111111111001111111133333333---|

e|-------------------------------------------------------------------|
B|-------------------------------------------------------------------|
G|555555555555555577777777777777-------------------------------------|
D|5555555555555555777777777777772~33333333333333333333333333333333---|
A|3333333333333333555555555555552~33333333333333333333333333333333---|
E|------------------------------0~11111111111111111111111111111111---|


e|--------------------------|X2
B|--------------------------|
G|--x5--x54444444455555555--|
D|77x-55x-------------------|
A|77x355x32222222233333333--|
E|55--33--------------------|

e|--------------|X2
B|--------------|
G|{4}{4}5~~~~---|
D|--------------|
A|{2}{2}3~~~~---|
E|--------------|

e|----------------|x8
B|----------------|
G|----------------|
D|223~3333333333--|
A|223~3333333333--|
E|001~1111111111--|

Single guitar (1 time through)

e|-------------------------------------------------------------------|
B|-------------------------------------------------------------------|
G|-555555555555555577777777777777------------------------------------|
D|-5555555555555555777777777777772~33333333333333333333333333333333--|
A|-3333333333333333555555555555552~33333333333333333333333333333333--|
E|-------------------------------0~11111111111111111111111111111111--|

e|-------------------------------------------------------------------|
B|-------------------------------------------------------------------|
G|555555555555555577777777777777-------------------------------------|
D|5555555555555555777777777777772~33333333333333223333333355555555---|
A|3333333333333333555555555555552~33333333333333223333333355555555---|
E|------------------------------0~11111111111111001111111133333333---|

e|-------------------------------------------------------------------|
B|-------------------------------------------------------------------|
G|555555555555555577777777777777-------------------------------------|
D|5555555555555555777777777777772~33333333333333333333333333333333---|
A|3333333333333333555555555555552~33333333333333333333333333333333---|
E|------------------------------0~11111111111111111111111111111111---|

e|-------------------------------------------------------------------|
B|-------------------------------------------------------------------|
G|555555555555555577777777777777-------------------------------------|
D|5555555555555555777777777777772~33333333333333223333333355555555---|
A|3333333333333333555555555555552~33333333333333223333333355555555---|
E|------------------------------0~11111111111111001111111133333333---|

e|--------------------------|X4
B|--------------------------|
G|--x5--x54444444455555555--|
D|77x-55x-------------------|
A|77x355x32222222233333333--|
E|55--33--------------------|
Tap to rate this tab
# A B C D E F G H I J K L M N O P Q R S T U V W X Y Z