Song name
# A B C D E F G H I J K L M N O P Q R S T U V W X Y Z

Misc Unsigned Bands - Bend The Clouds - Alive tab

Intro/Verse
e|--------------------------|
B|--------------------------|
G|--------------------------|x6
D|-9-9-7-7-7-9--9-9-4-4-7-9-|
A|-9-9-7-7-7-9--9-9-4-4-7-9-|
E|-7-7-5-5-5-7--7-7-2-2-5-7-|

Chorus
e|-----------------------------------------|
B|-----------------------------------------|
G|-9-9-9-9-9-----------7-7-7-7-7-----------|x3
D|-9-9-9-9-9-9-9-9-9-9-7-7-7-7-7-7-7-7-7-7-|
A|-7-7-7-7-7-9-9-9-9-9-5-5-5-5-5-7-7-7-7-7-|
E|-----------7-7-7-7-7-----------5-5-5-5-5-|

e|---------------------------|
B|---------------------------|
G|-9-9-9-9-9-----------9-7-9-|x1
D|-9-9-9-9-9-9-9-9-9-9-9-7-9-|
A|-7-7-7-7-7-9-9-9-9-9-7-5-7-|
E|-----------7-7-7-7-7-------|

Bridge
e|-------------------------|
B|-------------------------|
G|-7-7-7-7-7-7-7-7-7-7-7-7-|x1
D|-7-7-7-7-7-7-7-7-7-7-7-7-|
A|-5-5-5-5-5-5-5-5-5-5-5-5-|
E|-------------------------|

Solo in the key of B for 4 Intro/Verses

Pause for bass solo

Outro (Chorus x2 w/ Outro
e|---------------------|
B|---------------------|
G|-9-7-9--9-7-9--9-7-5-|x1
D|-9-7-9--9-7-9--9-7-5-|
A|-7-5-7--7-5-7--7-5-3-|
E|---------------------|

Song Order
Intro/Verse
Chorus
Intro/Verse
Chorus
Bridge
Guitar solo
Bridge
Pause for bass solo
Chorus x2 w/ Outro
Tap to rate this tab
# A B C D E F G H I J K L M N O P Q R S T U V W X Y Z