Song name
# A B C D E F G H I J K L M N O P Q R S T U V W X Y Z

Misc Unsigned Bands - A Line Too Late - Hardshi tab

LEAD GUITAR - Drop D
INTRO
--------------------------------------------------------------|
------------13------------------13----------------------------|
------10--------10-------10-----10----------------------------|
---12----12--------12-12----12--12----------------------------|
--------------------------------------------------------------|
--------------------------------------------------------------|

------------------------------------------------------------------------------|
------------13-------------------------------------13----------------13-------|
------10-------10-------10--------10---------10-------10-------10--------10---|
---12----12-------12-12----12--10----10---------------------------------------|
------------------------------------------13----13-------13-13-----13------13-|
------------------------------------------------------------------------------|

PRE VERSE

----------------------------------------|
---13~---13~---13~----------------------|
---10~---10~---10~----------------------|   X2
---12~---10~----------------------------|
---------------13~----------------------|
----------------------------------------|

VERSE

-------------------------------------------|
---13--------------------------------------|
-----10----10-9-7-7/9-10-------------------|
-------------------------------------------|
-------------------------------------------|
-------------------------------------------|


--------------------------------------------|
---13---------------------------------------|
-----10---10-9-12-12/14-14-12---------------|    X2
--------------------------------------------|
--------------------------------------------|
--------------------------------------------|

CHORUS SAME AS INTRO

PRE VERSE AND VERSE ARE REPEATED

BRIDGE

-------------------------------------------------------|
-------------------------------------------------------|
--7----9----11----13-----12----14----------------------|
--x----x-----x-----x-----x-----x-----------------------|
--5----7-----9----13----10----12-----------------------|
-------------------------------------------------------|

-----------------------------------------------------------------|
-----------------------------------------------------------------|
--7----9----11---5----3------------------------------------------|
--x----x----x----x----x------------------------------------------|
--5----7----9----3----1------------------------------------------|
-----------------------------------------------------------------|
Tap to rate this tab
# A B C D E F G H I J K L M N O P Q R S T U V W X Y Z