Song name
# A B C D E F G H I J K L M N O P Q R S T U V W X Y Z

Misc Unsigned Bands - Voices And Vices - Iolanthe tab

Title: Iolanthe
Artist: Voices and Vices
Composer: Troy Collard/Sean Lewis/Luke Ramljak
Tuning: Drop B

Intro:

|--8--8--8--8--8--8--8--8----|--5--5--5--5--5--5--5--5----|
|--10-10-10-10-10-10-10-10---|--6--6--6--6--6--6--6--6----|
|--10-10-10-10-10-10-10-10---|--7--7--7--7--7--7--7--7----|
|--8--8--8--8--8--8--8--8----|--8--8--8--8--8--8--8--8----|
|--8--8--8--8--8--8--8--8----|--5--5--5--5--5--5--5--5----|
|--8--8--8--8--8--8--8--8----|--5--5--5--5--5--5--5--5----|


--0--0--0--0--0--0--0--0----|--3--3--3--3--3--3--3--3----|
--3--3--3--3--3--3--3--3----|--5--5--5--5--5--5--5--5----|
--2--2--2--2--2--2--2--2----|--5--5--5--5--5--5--5--5----|
--3--3--3--3--3--3--3--3----|--3--3--3--3--3--3--3--3----|
--0--0--0--0--0--0--0--0----|--3--3--3--3--3--3--3--3----|
--0--0--0--0--0--0--0--0----|--3--3--3--3--3--3--3--3----|


--8--8--8--8--8--8--8--8----|--5--5--5--5--5--5--5--5----|
--10-10-10-10-10-10-10-10---|--6--6--6--6--6--6--6--6----|
--10-10-10-10-10-10-10-10---|--7--7--7--7--7--7--7--7----|
--8--8--8--8--8--8--8--8----|--8--8--8--8--8--8--8--8----|
--8--8--8--8--8--8--8--8----|--5--5--5--5--5--5--5--5----|
--8--8--8--8--8--8--8--8----|--5--5--5--5--5--5--5--5----|


--0--0--0--0--0--0--0--0----|--3--3--3--3--3--3--3--3----|
--3--3--3--3--3--3--3--3----|--5--5--5--5--5--5--5--5----|
--2--2--2--2--2--2--2--2----|--5--5--5--5--5--5--5--5----|
--3--3--3--3--3--3--3--3----|--3--3--3--3--3--3--3--3----|
--0--0--0--0--0--0--0--0----|--3--3--3--3--3--3--3--3----|
--0--0--0--0--0--0--0--0----|--3--3--3--3--3--3--3--3----|

Chorus:

|----------------------------|
|--------------10----10------|
|-----------------10----10---|
|--8-------------------------|
|--8-------------------------|
|--8-------------------------|


----------------------------|--------------------8-------|
--------------------6-------|--------------6--------6----|
-----------------7-----7----|-----------------9----------|
--5--------5--8-------------|--0-------------------------|
--5-------------------------|--0-------------------------|
--5-------------------------|--0-------------------------|


--------------8--------10---|----------------------------|
-----------------6----------|--------------10----10------|
--------------------9-------|-----------------10----10---|
--3-------------------------|--8-------------------------|
--3-------------------------|--8-------------------------|
--3-------------------------|--8-------------------------|


----------------------------|--------------------8-------|
--------------------6-------|--------------6--------6----|
-----------------7-----7----|-----------------9----------|
--5--------5--8-------------|--0-------------------------|
--5-------------------------|--0-------------------------|
--5-------------------------|--0-------------------------|


--------------8--------10---|----------------------------|
-----------------6----------|--------------10----10------|
--------------------9-------|-----------------10----10---|
--3-------------------------|--8-------------------------|
--3-------------------------|--8-------------------------|
--3-------------------------|--8-------------------------|


----------------------------|--------------------8-------|
--------------------6-------|--------------6--------6----|
-----------------7-----7----|-----------------9----------|
--5--------5--8-------------|--0-------------------------|
--5-------------------------|--0-------------------------|
--5-------------------------|--0-------------------------|


--------------8--------10---|----------------------------|
-----------------6----------|--------------10----10------|
--------------------9-------|-----------------10----10---|
--3-------------------------|--8-------------------------|
--3-------------------------|--8-------------------------|
--3-------------------------|--8-------------------------|


----------------------------|--------------------8-------|
--------------------6-------|--------------6--------6----|
-----------------7-----7----|-----------------9----------|
--5--------5--8-------------|--0-------------------------|
--5-------------------------|--0-------------------------|
--5-------------------------|--0-------------------------|


--------------8--------10---|
-----------------6----------|
--------------------9-------|
--3-------------------------|
--3-------------------------|
--3-------------------------|

Verse:

----------------------------|--------------0--1--0-------|
-----------3----------------|-----------3-----------3----|
--------2-------------------|--------2-------------------|
-----3----------------------|-----3----------------------|
--1-------------------------|--0-------------------------|
----------------------------|----------------------------|


----------------------------|--------------0--1--0-------|
-----------3----------------|-----------3-----------3----|
--------2-------------------|--------2-------------------|
-----3----------------------|-----3----------------------|
--1-------------------------|--0-------------------------|
----------------------------|----------------------------|


----------------------------|----------------|----------------------------|
-----------3----------------|----------------|-----------3----------------|
--------0-------------------|----------------|--------2-------------------|
-----2----------------------|----------------|-----3----------------------|
--3-------------------------|----------------|--1-------------------------|
----------------------------|----------------|----------------------------|


--------------0--1--0-------|----------------------------|
-----------3-----------3----|-----------3----------------|
--------2-------------------|--------2-------------------|
-----3----------------------|-----3----------------------|
--0-------------------------|--1-------------------------|
----------------------------|----------------------------|


--------------0--1--0-------|----------------------------|----------------|
-----------3-----------3----|-----------3----------------|----------------|
--------2-------------------|--------0-------------------|----------------|
-----3----------------------|-----2----------------------|----------------|
--0-------------------------|--3-------------------------|----------------|
----------------------------|----------------------------|----------------|


----------------------------|--------------0--1--0-------|
-----------3----------------|-----------3-----------3----|
--------2-------------------|--------2-------------------|
-----3----------------------|-----3----------------------|
--1-------------------------|--0-------------------------|
----------------------------|----------------------------|


----------------------------|--------------0--1--0-------|
-----------3----------------|-----------3-----------3----|
--------2-------------------|--------2-------------------|
-----3----------------------|-----3----------------------|
--1-------------------------|--0-------------------------|
----------------------------|----------------------------|


----------------------------|----------------|----------------------------|
-----------3----------------|----------------|-----------3----------------|
--------0-------------------|----------------|--------2-------------------|
-----2----------------------|----------------|-----3----------------------|
--3-------------------------|----------------|--1-------------------------|
----------------------------|----------------|----------------------------|


--------------0--1--0-------|----------------------------|
-----------3-----------3----|-----------3----------------|
--------2-------------------|--------2-------------------|
-----3----------------------|-----3----------------------|
--0-------------------------|--1-------------------------|
----------------------------|----------------------------|


--------------0--1--0-------|----------------------------|----------------|----|
-----------3-----------3----|-----------3----------------|----------------|----|
--------2-------------------|--------0-------------------|----------------|----|
-----3----------------------|-----2----------------------|----------------|----|
--0-------------------------|--3-------------------------|----------------|----|
----------------------------|----------------------------|----------------|----|

Verse (Continued):

----------------------------|----------------------------|
----------------------------|----------------------------|
--10-10-10-10-10-10-10-10---|--14-14-14-15-15-14-14-14---|
----------------------------|----------------------------|
--8--8--8--8--8--8--8--8----|--12-12-12-13-13-12-12-12---|
----------------------------|----------------------------|


----------------------------|----------------------------|
----------------------------|----------------------------|
--7--7--7--7--7--7--7--7----|--10-10-10-12-12-14-14-14---|
----------------------------|----------------------------|
--5--5--5--5--5--5--5--5----|--8--8--8--10-10-12-12-12---|
----------------------------|----------------------------|


----------------------------|----------------------------|
----------------------------|----------------------------|
--7--7--7--7--7--7--7--7----|--10-10-10-12-12-10-10-10---|
----------------------------|----------------------------|
--5--5--5--5--5--5--5--5----|--8--8--8--10-10-8--8--8----|
----------------------------|----------------------------|


----------------------------|----------------------------|
----------------------------|----------------------------|
--14-14-14-14-14-14-14-14---|--17-17-17-17-17-17-17-17---|
----------------------------|----------------------------|
--12-12-12-12-12-12-12-12---|--15-15-15-15-15-15-15-15---|
----------------------------|----------------------------|


----------------------------|----------------------------|
----------------------------|----------------------------|
--10-10-10-10-10-10-10-10---|--14-14-14-15-15-14-14-14---|
----------------------------|----------------------------|
--8--8--8--8--8--8--8--8----|--12-12-12-13-13-12-12-12---|
----------------------------|----------------------------|


----------------------------|----------------------------|
----------------------------|----------------------------|
--7--7--7--7--7--7--7--7----|--10-10-10-12-12-10-10-10---|
----------------------------|----------------------------|
--5--5--5--5--5--5--5--5----|--8--8--8--10-10-8--8--8----|
----------------------------|----------------------------|


----------------------------|----------------------------|
----------------------------|----------------------------|
--7--7--7--7--7--7--7--7----|--10-10-10-12-12-10-10-10---|
----------------------------|----------------------------|
--5--5--5--5--5--5--5--5----|--8--8--8--10-10-8--8--8----|
----------------------------|----------------------------|


----------------------------|----------------------------|
----------------------------|----------------------------|
--14-14-14-14-14-14-14-14---|--17-17-17-17-17-17-17-17---|
----------------------------|----------------------------|
--12-12-12-12-12-12-12-12---|--15-15-15-15-15-15-15-15---|
----------------------------|----------------------------|

Solo:

----------------------------------------------------|
----------------------------------------------------|
----------------------------------------------------|
--------------------------10-------10-12-10-12b-----|
--------------------10h12-----12-----------------12-|
----------------------------------------------------|


---------------------------------|----------------------------|
---------------------------------|----------------------------|
-------------------10----10-12---|--12h14-------------14-12---|
-------10----10-12----12---------|----------------------------|
-10-12----12---------------------|----------------------------|
---------------------------------|----------------------------|


----------------------------------------------------|
----------------------------------------------------|
--12----10----10-12-10------------------------------|
------------------------12--------------------------|
----------------------------------------------------|
----------------------------------------------------|


----------------------------------------------------------|
----------------------------------------------------------|
--------------------------10----------10----12----10------|
--------10----------10-12----12-10-12---------------------|
-10-12-----12-10-12---------------------------------------|
----------------------------------------------------------|


----------------------------|----------------------------|
----------------------------|----------------------------|
--12-14------------14-12----|--14-17-------------17-14---|
----------------------------|----------------------------|
----------------------------|----------------------------|
----------------------------|----------------------------|


----------------------------|----------------------------|
----------------------------|----------------------------|
--17-14-------------12-14---|--14-12-12-10-10-12-12-10---|
----------------------------|----------------------------|
----------------------------|----------------------------|
----------------------------|----------------------------|


----------------------------------------------------|
----------------------------------------------------|
------------------------10-12-12-12-10---12-10-12---|
--12--------10----10-12-----------------------------|
------10-12----12-----------------------------------|
----------------------------------------------------|


----------------------------------|----------------------------|
----------------------------------|----------------------------|
--------------------10-12-12-10---|--12-14---------------------|
--------10----10-12---------------|----------------------------|
-10-12-----12---------------------|----------------------------|
----------------------------------|----------------------------|

Repeat Chorus

Repeat Intro

Repeat Verse

--------8--8----------------|--------5--5----------------|
--------10-10---------------|--------6--6----------------|
--------10-10---------------|--------7--7----------------|
--------8--8----------------|--------8--8----------------|
--------8--8----------------|--------5--5----------------|
--------8--8----------------|--------5--5----------------|


--------8--8----------------|--------5--5----------------|
--------10-10---------------|--------6--6----------------|
--------10-10---------------|--------7--7----------------|
--------8--8----------------|--------8--8----------------|
--------8--8----------------|--------5--5----------------|
--------8--8----------------|--------5--5----------------|


--------3--3----------------|--------3--3----------------|
--------5--5----------------|--------5--5----------------|
--------5--5----------------|--------5--5----------------|
--------3--3----------------|--------3--3----------------|
--------3--3----------------|--------3--3----------------|
--------3--3----------------|--------3--3----------------|


--------8--8----------------|--------5--5----------------|
--------10-10---------------|--------6--6----------------|
--------10-10---------------|--------7--7----------------|
--------8--8----------------|--------8--8----------------|
--------8--8----------------|--------5--5----------------|
--------8--8----------------|--------5--5----------------|


--------8--8----------------|--------5--5----------------|
--------10-10---------------|--------6--6----------------|
--------10-10---------------|--------7--7----------------|
--------8--8----------------|--------8--8----------------|
--------8--8----------------|--------5--5----------------|
--------8--8----------------|--------5--5----------------|


--------3--3----------------|--------3--3----------------|
--------5--5----------------|--------5--5----------------|
--------5--5----------------|--------5--5----------------|
--------3--3----------------|--------3--3----------------|
--------3--3----------------|--------3--3----------------|
--------3--3----------------|--------3--3----------------|


--5----3--------------------|----8--10-----10-12---------|
------------6---5-----------|-----------8---------10-----|
----------------------------|----------------------------|
----------------------------|----------------------------|
----------------------------|----------------------------|
----------------------------|----------------------------|


--5----3--------------------|----------------------------|
------------6---5-----------|----------------------------|
----------------------------|----5-------7--------9b-----|
----------------------------|----------------------------|
----------------------------|----------------------------|
----------------------------|----------------------------|


--5----3--------------------|----8--10-----10-12---------|
------------6---5-----------|-----------8---------10-----|
----------------------------|----------------------------|
----------------------------|----------------------------|
----------------------------|----------------------------|
----------------------------|----------------------------|


--5----3--------------------|----------------------------|
------------6---5-----------|----------------------------|
----------------------------|----5-------7--------9b-----|
----------------------------|----------------------------|
----------------------------|----------------------------|
----------------------------|----------------------------|

Repeat Chorus

Repeat Intro
Tap to rate this tab
# A B C D E F G H I J K L M N O P Q R S T U V W X Y Z