Song name
# A B C D E F G H I J K L M N O P Q R S T U V W X Y Z

Misc Unsigned Bands - Rdriftwood - Guude Boulderfist Acoustic Rendition tab

This is an acoustic rendition from Rdriftwood for Guude Boulderfist's intro
song (Guude is a YouTuber). It's an awesome song, listen to the original 
first (search in Soundcloud). All credit to Rdriftwood!

Standard Tuning.

e|-0-----------------------------|
B|-1-----------------------------|
G|-2-----------------------------|
D|-2-----------------------------|
A|-0--0--0--0--0--0--0--0--0-----|
E|-------------------------------|


e|---------------------------------------------0----|
B|--------------------------------------------------|
G|-----------------------------------------5h7------|
D|-5h7---7-7---7-5---5-5---5-5h7---7-7---7----------|
A|-----0-----0-----0-----0-------0-----0---0---0----|
E|--------------------------------------------------|


e|--------------------------------------------------|
B|---------------------------------------------0----|
G|-----------------------------------------7p5------|
D|-5h7---7-7---7-5---5-5---5-5h7---7-7---7----------|
A|-----0-----0-----0-----0-------0-----0---0---0----|
E|--------------------------------------------------|


e|---------------------------------------------0----|
B|--------------------------------------------------|
G|-----------------------------------------5h7------|
D|-5h7---7-7---7-5---5-5---5-5h7---7-7---7----------|
A|-----0-----0-----0-----0-------0-----0---0---0----|
E|--------------------------------------------------|


e|--------------------------------------------------|
B|--------------------------------------------------|
G|-------------------------------------------0------|
D|-5h7---7-7---7-5---5-5---5-5h7---7-7---7---0------|
A|-----0-----0-----0-----0-------0-----0---0---0----|
E|--------------------------------------------------|

                           You're watching...
e|-------------------------------0----|
B|-1---------------------------3------|
G|-0h2---------------2-------2--------|
D|-0h2---------0h2--------------------|
A|-----0--0--0-----0---0--0--0---0----|
E|------------------------------------|


   [repeat from here]
e|-1-------0-----------------------------0----|
B|-----1-------0---1-------1-------1-1-3------|
G|---2-------0---------2-------2--------------|
D|-------------------2-------2----------------|
A|-----------------0-----0-0-----0---0-0------|
E|-1-----1-3-----3----------------------------|


e|-1-------0-------5-------5-------5-----0----|
B|-----1-------0-------5-------5-------3------|
G|---2-------0-------5-------5-------2--------|
D|--------------------------------------------|
A|-----------------0-----0-0-----0-0-0-0------|
E|-1-----1-3-----3----------------------------|


e|-1-------0----------------------------------|
B|-----1-------0---1-------1-------1---1------|
G|---2-------0---------2-------2--------------|
D|-------------------2-------2----------------|
A|-----------------0-----0-0-----0-0-0-0-0----|
E|-1-----1-3-----3----------------------------|


 I'm just a...
e|-------0-0-3-0-0---------0-0-7-3p0-3h5----|
B|-3-----------------3-3--------------------|
G|---0--------------------------------------|
D|-----------------------------0------------|
A|------------------------------------------|
E|-1---1---1---1---1-3---3---3--------------|


e|--------------------------------------------|
B|-----------1--------------------1-----------|
G|-------2----------2---------2-------2-------|
D|---0h2--------0h2-------0h2-----------------|
A|-0-0-----0----0-----0-0-0-----0---0----0----|
E|--------------------------------------------|


e|-------0-0-3-0-0---------0-0-7-3p0----|
B|-3-----------------3-3----------------|
G|---0----------------------------------|
D|-----------------------------0--------|
A|--------------------------------------|
E|-1---1---1---1---1-3---3---3----------|


 break
e|-3h5---5-5---5-3---3-3---3-3h5---5-5---5-----0----|
B|--------------------------------------------------|
G|-----------------------------------------5h7------|
D|--------------------------------------------------|
A|-----0-----0-----0-----0-------0-----0---0---0----|
E|--------------------------------------------------|


e|--------------------------------------------------|
B|---------------------------------------------0----|
G|-----------------------------------------7p5------|
D|-5h7---7-7---7-5---5-5---5-5h7---7-7---7----------|
A|-----0-----0-----0-----0-------0-----0---0---0----|
E|--------------------------------------------------|


e|-3h5---5-5---5-3---3-3---3-3h5---5-5---5-----0----|
B|--------------------------------------------------|
G|-----------------------------------------5h7------|
D|--------------------------------------------------|
A|-----0-----0-----0-----0-------0-----0---0---0----|
E|--------------------------------------------------|

                                          Either repeat or continue...
e|-----------------------------------------|-----0-|    |---------|
B|-----------------------------------------|---3---|    |---------|
G|-----------------------------------------|-2-----|    |---------|
D|-5h7---7-7---7-5---5-5---5-5h7---7-7---7-|-------|    |---------|
A|-----0-----0-----0-----0-------0-----0---|-0---0-| or |-0--0----|
E|-----------------------------------------|-------|    |---------|


 outro
e|-----------------------------------------------|
B|-1---------------------------------------------|
G|-2-----2----2-----2----2-----2----2-----2------|
D|-----2----------2----------2----------2--------|
A|-0-0-----0----0-----0----0-----0----0-----0----|
E|-----------------------------------------------|


e|---------------------------|
B|-1-------------------------|
G|-2-----2---2---------------|
D|-----2---------0h2---------|
A|-0-0-----0---0------0-0----|
E|---------------------------|
Tap to rate this tab
# A B C D E F G H I J K L M N O P Q R S T U V W X Y Z