Song name
# A B C D E F G H I J K L M N O P Q R S T U V W X Y Z

Misc Unsigned Bands - Imphal Talkies N The Howlers - Lullaby tab

LULLABY - IMPHAL TALKIES N THE HOWLERS

Tabbed by: Roger
E-mail: rsoubam@gmail.com

STANDARD TUNING
CAPO ON 5TH FRET

(The tabs and chords given are relative to capo. Originally, the lead was played with
ukulele but these notes will give the same tune on an acoustic guitar.This is the author's
own interpretation and there is no guarantee as to its level of correctness. You may use 
it only for private use and research.)



INTRO:

(only ukulele plays)

a|-------3---------------|-------3--------------|-------3---------------|--------------------|
E|-3--5-----5-----3------|-3--5-----5-----3-----|-3--5-----5-----3------|---------3----------|
C|-------------2-----4 ~ |-------------2----/4--|-------------2-----4---|-4\2--0-----4\2--0--|
G|-----------------------|----------------------|-----------------------|--------------------|
D|-----------------------|----------------------|-----------------------|--------------------|
A|-----------------------|----------------------|-----------------------|--------------------|

(acoustic rhythm comes in here)

              G                   Dsus4                   Em7                   Cadd9

a|-------3---------------|-------3--------------|-------3---------------|--------------------|
E|-3--5-----5-----3------|-3--5-----5-----3-----|-3--5-----5-----3------|---------3----------|
C|-------------2-----4 ~ |-------------2----/4--|-------------2-----4---|-4\2--0-----4\2--0--|
G|-----------------------|----------------------|-----------------------|--------------------|
D|-----------------------|----------------------|-----------------------|--------------------|
A|-----------------------|----------------------|-----------------------|--------------------|



(G)Blood Soaked streets,(Dsus4)that's my ground
(Em7)That's where I (Cadd9)play around

(G)Sound of gunshots (Dsus4)That's my song
(Em7)That's my lulla- (Cadd9)lullaby

(G)Your revolution has (Dsus4)snatched away
(Em7)my right to edu-(Cadd9)cation

CHORUS:

(G)Te te te tenouwa kangleipakki tenouwa
(Em7)angang na mullaga (Cadd9)tenouwa na haraowi
(G)oooooh (D)ooooooohhhh
(Em7)Una saba nongmeini(Cadd9) mana pangba makhoini

INTERLUDE 1:
        G                      Dsus4                   Em7                     Cadd9

a|-------3---------------|-------3--------------|-------3---------------|--------------------|
E|-3--5-----5-----3------|-3--5-----5-----3-----|-3--5-----5-----3------|---------3----------|
C|-------------2-----4 ~ |-------------2----/4--|-------------2-----4---|-4\2--0-----4\2--0--|
G|-----------------------|----------------------|-----------------------|--------------------|
D|-----------------------|----------------------|-----------------------|--------------------|
A|-----------------------|----------------------|-----------------------|--------------------|


          G                      Dsus4                    Em7                  Cadd9
a|-------3---------------|-------3--------------|-------3---------------|---------------5--3-|
E|-3--5-----5-----3------|-3--5-----5-----3-----|-3--5-----5-----3------|----------3--5------|
C|-------------2-----4 ~ |-------------2----/4--|-------------2-----4---|-4\2--0-------------|
G|-----------------------|----------------------|-----------------------|--------------------|
D|-----------------------|----------------------|-----------------------|--------------------|
A|-----------------------|----------------------|-----------------------|--------------------|

(G)Blood soaked body (Dsus4) that's my daddy
(Em7)you just shot him  (Cadd9) you just killed him.....................

(G)we don't need your (Dsus4)guns and bombs
(Em7)we just need (Cadd9)songs of love

(G)your constitution has (Dsus4)nothing for me
(Em7)all you do is (Cadd9) kill my innocence

CHORUS:Te te te tenouwa..


INTERLUDE 2:

            G                        Dsus4                    Em7                    Cadd9

a|-------------------------|----------------------|-------------------------|-3--2---------------|
E|----------3--------------|----------5--3--------|----------3--------------|-------5--3/5--3--3-|
C|-0--2--4-----4\2--0--2 ~ |-0--2--4--------4--2--|-0--2--4-----4\2--0--2 ~----------------------|(X2)
G|-------------------------|----------------------|-------------------------|--------------------|
D|-------------------------|----------------------|-------------------------|--------------------|
A|-------------------------|----------------------|-------------------------|--------------------|

(G)Fallen bodies like (Dsus4)fallen leaves (Em7)of October
(Cadd9) but you don't care

(G)you bomb a town (Dsus4)That's my town
(Em7)That's where (Cadd9)i play around

(G)Dont fill our lives with (Dsus4)throes of pain
(Em7)Share a smile so we can (Cadd9)bloom again

CHORUS:Te te te tenouwa..

*************************
| / slide up
| \ slide down
| ~ vibrato
*************************

http://www.reverbnation.com/imphaltalkiesnthehowlers
Tap to rate this tab
# A B C D E F G H I J K L M N O P Q R S T U V W X Y Z