Song name
# A B C D E F G H I J K L M N O P Q R S T U V W X Y Z

Misc Unsigned Bands - Sherclop Pones - Gypsy Bard tab

When you're rife with...       There's a simple explanation...

e|3---5---7---9---7---5---7---3|3---5---7---9---7---5---7---3|
A|-----------------------------|-----------------------------|
D|-----------------------------|-----------------------------|
G|-----------------------------|-----------------------------|
B|-----------------------------|-----------------------------|
E|-----------------------------|-----------------------------|

You're a toymaker's...         Trapped inside a crystal...

e|3---5---9---7---5---9---12--3|3----5----7----9----7--5----3|
A|-----------------------------|-----------------------------|
D|-----------------------------|-----------------------------|
G|-----------------------------|-----------------------------|
B|-----------------------------|-----------------------------|
E|-----------------------------|-----------------------------|

And no matter how he tilts...  Know that we will be resilient...

e|3---5---7---9---7--5---7--9--|3---5---9---12---9-12---9---7|
A|-----------------------------|-----------------------------|
D|-----------------------------|-----------------------------|
G|-----------------------------|-----------------------------|
B|-----------------------------|-----------------------------|
E|-----------------------------|-----------------------------|

We won't let him break our...  As we sing our silly song...

e|7---5---7---9---7--9---12--7-|3----5----7----9----7--5----3|
A|-----------------------------|-----------------------------|
D|-----------------------------|-----------------------------|
G|-----------------------------|-----------------------------|
B|-----------------------------|-----------------------------|
E|-----------------------------|-----------------------------|

When I was a little filly...   A galloping blaze overtook...

e|0---0----0---0---3--0---3---7|3--3-3-3-3---3-0-3---5--0---3|
A|-----------------------------|-----------------------------|
D|-----------------------------|-----------------------------|
G|-----------------------------|-----------------------------|
B|-----------------------------|-----------------------------|
E|-----------------------------|-----------------------------|

And they shipped me off to...  Said "ditch those roots...

e|0---2---5-5-5--3--5--7--5--3-|3---5---5---5---3-5-7--5-3--5|
A|-----------------------------|-----------------------------|
D|-----------------------------|-----------------------------|
G|-----------------------------|-----------------------------|
B|-----------------------------|-----------------------------|
E|-----------------------------|-----------------------------|

So I dug 1000 holes...         And cut a rug with orphan...

e|12-9--12----9----12----9----7|9---12--9--12---9---12--9---7|
A|-----------------------------|-----------------------------|
D|-----------------------------|-----------------------------|
G|-----------------------------|-----------------------------|
B|-----------------------------|-----------------------------|
E|-----------------------------|-----------------------------|

Now memories are blurred...    But I still know the words...

e|5--12-12-12--9-7-5-7-7-5-3-7|3-5-7--3-5-7--5-7-3|
A|-----------------------------|-----------------------------|
D|-----------------------------|-----------------------------|
G|-----------------------------|-----------------------------|
B|-----------------------------|-----------------------------|
E|-----------------------------|-----------------------------|

When you've bungled all...     (And) your loved ones have...

e|7----5----3---5--5--3----7--9|7---5---9----12-9---7----7--3|
A|-----------------------------|-----------------------------|
D|-----------------------------|-----------------------------|
G|-----------------------------|-----------------------------|
B|-----------------------------|-----------------------------|
E|-----------------------------|-----------------------------|

Listen to the jingle jangle... Of my gypsy tamborine...

e|7--5---5--7---9--7---12----3-|3---5-----7---9----7---5---3-|
A|-----------------------------|-----------------------------|
D|-----------------------------|-----------------------------|
G|-----------------------------|-----------------------------|
B|-----------------------------|-----------------------------|
E|-----------------------------|-----------------------------|

Because these chords are...    And the whole world's...

e| 7--5--3--0--3--5-3--7-9|3--5--7--9--7-5--5-3|
A|.-----------------------------|-----------------------------|
D| -----------------------------|-----------------------------|
G| -----------------------------|-----------------------------|
B|.-----------------------------|-----------------------------|
E| -----------------------------|-----------------------------|

So please children stop...     And just listen to the sound...

e|7----5----7---9----7-5---12-3|3----5----7----9-----7--5----3|
A|-----------------------------|-----------------------------.|
D|-----------------------------|----------------------------- |
G|-----------------------------|----------------------------- |
B|-----------------------------|-----------------------------.|
E|-----------------------------|----------------------------- |
Tap to rate this tab
# A B C D E F G H I J K L M N O P Q R S T U V W X Y Z