Song name
# A B C D E F G H I J K L M N O P Q R S T U V W X Y Z

Misc Unsigned Bands - Only Rodger - Settle tab

Tabbed by:
E-mail:

Tuning: Standard

VERSE: 
e|---------------------------------------------------------------------------|
B|---------0---------------0---------------0---------------0-----------------| 
G|-----0-----0---0-----0-----0---0-----0-----0---0-----0-----0---0-----------| REPEAT AS NEEDED
D|---5---5-----5-----5---5-----5-----5---5-----5-----5---5-----0-------------|
A|-7---------------5---------------3-----------------------------------------|
E|-------------------------------------------------3-------------------------|

PRE-CHORUS
e|---------------------------------------------------------------------------|
B|---------0---------------0---------------0---------------0-----------------|
G|-----7-----7---7-----7-----7---7-----7-----7---7-----7-----7---7-----------|  x2
D|---5---5-----5-----5---5-----5-----5---5-----5-----5---5-----0-------------|
A|-7---------------5---------------3-----------------------------------------|
E|-------------------------------------------------3-------------------------|

CHORUS
e|---------------------------------------------------------------------------|
B|---------0---------------0---------------0---------------0-----------------|
G|-----5-----5---5-----5-----5---5-----5-----5---5-----5-----5---5-----------|  X2
D|---0---0-----0-----0---0-----0-----0---0-----0-----0---0-----0-------------|
A|-3---------------2---------------0-----------------------------------------|
E|-------------------------------------------------3-------------------------|

e|---------------------------------------------------------------------------|
B|---------0---------------0---------------0---------------0-----------------|
G|-----5-----5---5-----5-----5---5-----5-----5---5-----5-----5---5-----------|  X1
D|---0---0-----0-----0---0-----0-----0---0-----0-----0---0-----0-------------|
A|-3---------------3---------------5---------------5-------------------------|
E|---------------------------------------------------------------------------|

OUTRO
e|---------------------------------------------------------------------------|
B|---------0---------------0---------------0---------------0-----------------|
G|-----4-----4---4-----4-----4---4-----4-----4---4-----4-----4---4-----------|  X1
D|---0---0-----0-----0---0-----0-----0---0-----0-----0---0-----0-------------|
A|---------------------------------------------------------------------------|
E|-3---------------2---------------0---------------2----------------3~-------|

VERSE
PRE-CHORUS
CHORUS
VERSE 
PRE-CHORUS
CHORUS
OUTRO

************************************

| /   slide up
| \   slide down
| h   hammer-on
| p   pull-off
| ~   vibrato
| +   harmonic
| x   Mute note
| b   Bend
| pb  Pre-bend
| br  Bend release
| pbr Pre-bend release
| brb Bend release bend

************************************
Tap to rate this tab
# A B C D E F G H I J K L M N O P Q R S T U V W X Y Z