Song name
# A B C D E F G H I J K L M N O P Q R S T U V W X Y Z

Misc Unsigned Bands - Crywank - Song For A Guilty Sadist tab

----------------------------------------------------------------- 
Song For A Guilty Sadist by Crywank
----------------------------------------------------------------- 
Tabbed by: palu
Tuning: Standard

This is my first tab, please don't kill me.
If you find any mistakes just drop a comment.


e|-----------------------------------|
B|---------------------3-p0----------|
G|-----7-------0---------------------|    x10
D|---9---0---4---0---2----0---0---0--|
A|-7-------5-------3--------2---2----|
E|-----------------------------------|
 Intro and 1st part.

e|---------------------------------------|
B|-----8-p0-----5-p0-----3-p0-----1-p0---|
G|---------------------------------------|    x6   
D|---9----0---4----0---2----0---0----0---| 
A|-7--------5--------3--------2----------|
E|---------------------------------------|
 ...Oh, how rude of me etc.

e|-----------------------------------|
B|---------------------3-p0----------|
G|-----7-------0---------------------|    x4
D|---9---0---4---0---2----0---0---0--|
A|-7-------5-------3--------2---2----|
E|-----------------------------------|
 Outro.


| /  slide up
| \  slide down
| h  hammer-on
| p  pull-off
| ~  vibrato
| +  harmonic
| x  Mute note
Tap to rate this tab
# A B C D E F G H I J K L M N O P Q R S T U V W X Y Z