Song name
# A B C D E F G H I J K L M N O P Q R S T U V W X Y Z

Misc Unsigned Bands - Kung Fu Hustles Love Tune - Zhi Yao Wei tab

1.
e-------------|------7-------|
b-97----------|----7--9------|
g----97---6 ~ |-689----------|
D-------9-----|--------------|
A-------------|--------------|
E-------------| -------------|

2.
e-------------|--------------|
b-97----------|--------------|
g----97---6 ~ |-6898---------|
D-------9-----|------96 ~----|
A-------------|--------------|
E-------------| -------------|

1.
 
3.
e--79-7-------|-------7------|--------------|
b-9----979~---|-97--7--9-----|-97--7--------|
g-------------|---9~---------|---9--8--8-6--|
D-------------|--------------|--------9-9---|
A-------------|--------------|--------------|
E-------------| -------------|--------------|
Tap to rate this tab
# A B C D E F G H I J K L M N O P Q R S T U V W X Y Z