Song name
# A B C D E F G H I J K L M N O P Q R S T U V W X Y Z

Misc Unsigned Bands - Internal Liars - Shadow Of The Martyr tab

#----------------------------------PLEASE NOTE---------------------------------#
#This file is the author's own work and represents their interpretation of the #
#song. You may only use this file for private study, scholarship, or research. #
#------------------------------------------------------------------------------##

                    01. INTERNAL LIARS - SHADOW OF THE MARTYR


Gtr I (C G C F A D) - Lead (Quest D.)
Gtr II (C G C F A D) - Rhythm (John T.)

  Q=100
 4/4
  Gtr I
      PM  PM    PM    PM  PM    PM      PM  PM    PM    PM  PM    PM
  S S S S S S S S S S S S S S S S   S S S S S S S S S S S S S S S S
|---------------------------------|----------------------------------|
|-6-6---6---6-----6-6---6---6-----|-5-5---5---5-----5-5---5---5------|
|-------------7---------------7---|-------------7---------------7----|
|-----0---0-----0-----0---0-----0-|-----0---0-----0-----0---0-----0--|
|---------------------------------|----------------------------------|
|---------------------------------|----------------------------------|
|
| Gtr II
| W                                 W
|---------------------------------|----------------------------------|
|---------------------------------|----------------------------------|
|---------------------------------|----------------------------------|
|-7-------------------------------|-5--------------------------------|
|-5-------------------------------|-3--------------------------------|
|---------------------------------|----------------------------------|


      PM  PM    PM    PM  PM    PM                    TPTPTP
                                                      |-3-|
  S S S S S S S S S S S S S S S S   S S S S S T T S S Q Q Q
|---------------------------------|-5-6-5-------------------|
|-8-8---8---8-----8-8---8---8-----|-------8-6-5-6-5---------|
|-------------7---------------7---|-----------------6-7-----|
|-----0---0-----0-----0---0-----0-|---------------------8---|
|---------------------------------|-----------------------9-|
|---------------------------------|-------------------------|
|
| W                                 W
|---------------------------------|-------------------------|
|---------------------------------|-------------------------|
|---------------------------------|-2-----------------------|
|-3-------------------------------|-2-----------------------|
|-1-------------------------------|-0-----------------------|
|---------------------------------|-------------------------|


                                       ~
  S S S S  S S S S  S  T  T  S S E E   W
|------------------10-10-11-10-5-6-8-|------|
|-------7--------8-------------------|-7----|
|-----7--------8---------------------|------|
|---7--------8-----------------------|------|
|-9-------10-------------------------|------|
|------------------------------------|------|
|
| H                 H                  W
|------------------------------------|------|
|------------------------------------|------|
|------------------------------------|------|
|------------------------------------|-0----|
|-7-----------------8----------------|-0----|
|-7-----------------8----------------|-0----|


        PM  PM  PM                         PM  PM  PM
   S  S S S S S S S S S S S S S  S S   S S S S S S S S S S S S S S S S
|------------------------------------|-----------------------------8-5-|
|--6--5---8---6---5-6-5-6-8-6-8-10-8-|-6-5---8---6---5-6-5-6-8-6-8-----|
|-------7---7---7--------------------|-----7---7---7-------------------|
|------------------------------------|---------------------------------|
|------------------------------------|---------------------------------|
|------------------------------------|---------------------------------|
|
| +W                                   W
|------------------------------------|---------------------------------|
|------------------------------------|---------------------------------|
|------------------------------------|---------------------------------|
|-(0)--------------------------------|-3-------------------------------|
|-(0)--------------------------------|-3-------------------------------|
|-(0)--------------------------------|-3-------------------------------|


         PM  PM  PM                        PM    PM     PM    PM     PM
   S   S S S S S S S S S S S S S S S   S S S S S S  S S S S S S  S S S  S
|----------8---6---5-6-5-------------|-6p5---8p6---10p8---6p5---10p8---12-|
|--8--10-----------------8-6-5-6-5---|------------------------------------|
|--------7---7---7-----------------7-|-----7-----7------7-----7------7----|
|------------------------------------|------------------------------------|
|------------------------------------|------------------------------------|
|------------------------------------|------------------------------------|
|
| +W                                   W
|------------------------------------|------------------------------------|
|------------------------------------|------------------------------------|
|------------------------------------|-5----------------------------------|
|-(3)--------------------------------|-5----------------------------------|
|-(3)--------------------------------|-3----------------------------------|
|-(3)--------------------------------|------------------------------------|


   ~~                                           PM--|     PM   PM ~~~~~~~~~~
   W          W          Q   Q    Q   +Q      S T T S S S S S  S  E  E E  E
|-13--------|----------|-------------------|---------------------------------|
|-----------|----------|-3--(3)--(3)--(3)--|---------------------------------|
|-----------|----------|-----2---(2)--(2)--|----------------------8--7-------|
|-----------|----------|----------0---(0)--|-12-0-0-0-3S8-0-7--0-------8--7--|
|-----------|-0--------|-------------------|---------------------------------|
|-----------|-0--------|-------------------|---------------------------------|
|
|                                             PM|   PM|   PM|
|  W          W          W                    S S S S S S S S  E  E  E    E
|-----------|----------|-------------------|---------------------------------|
|-----------|----------|-------------------|---------------------------------|
|-----------|----------|-------------------|------------------13-12----------|
|--0--------|-0--------|-------------------|------------------------13---12--|
|--0--------|-0--------|-0-----------------|--0-0---0-0---0-0----------------|
|--0--------|-0--------|-0-----------------|--0-0---0-0---0-0----------------|


   TP  TP  TP  TP  TP       TP            PM--|     PM  PM   PM--|     PM  PM
   E   E   E   E   Q       +Q  S S S    S T T S S S S S S  S T T S S S S S S
|------------------------------------|---------------------------------------|
|------------------------------------|---------------------------------------|
|------------------8-------(8)-------|---------------------------------------|
|-12---7---8---5---------------------|-12-0-0-0-3S8-0-7-0-12-0-0-0-3-8-0-7-0-|
|------------------------------------|---------------------------------------|
|------------------------------------|---------------------------------------|
|
|  PM|   PM|   PM----------|
|  S S S S S S S S S S S S  S  S S S    W
|------------------------------------|---------------------------------------|
|------------------------------------|---------------------------------------|
|------------------------------------|---------------------------------------|
|------------------------------------|--0------------------------------------|
|--0-0---0-0---0-0-0-0-0-0--0--------|--0------------------------------------|
|--0-0---0-0---0-0-0-0-0-0--0--------|--0------------------------------------|


      PM--|     PM   PM   PM--|      PM  PM
   S  T T S S S S  S S  S T T S S  S S S S
|------------------------------------------|
|------------------------------------------|
|------------------------------------------|
|-10--0-0-0-3-8-0-10-0-13-0-0-0-3-10-0-8-0-|
|------------------------------------------|
|------------------------------------------|
|
| +W
|------------------------------------------|
|------------------------------------------|
|------------------------------------------|
|-(0)--------------------------------------|
|-(0)--------------------------------------|
|-(0)--------------------------------------|


     PM--|     PM  PM   PM--|     PM  PM
   S T T S S S S S S  S T T S S S S S S
|---------------------------------------|
|---------------------------------------|
|-12-0-0-0-3-8-0-7-0-12-0-0-0-3-8-0-7-0-|
|---------------------------------------|
|---------------------------------------|
|---------------------------------------|
|
|  W
|---------------------------------------|
|---------------------------------------|
|---------------------------------------|
|-10------------------------------------|
|-10------------------------------------|
|-10------------------------------------|


     PM--|     PM   PM   PM--|      PM   PM
   S T T S S S S  S S  S T T S S  S S  S S
|------------------------------------------|
|------------------------------------------|
|------------------------------------------|
|-10-0-0-0-3-8-0-10-0-13-0-0-0-3-13-0-15-0-|
|------------------------------------------|
|------------------------------------------|
|
|                   PM----------------------
|  H                S  S S S S S  S      S
|------------------------------------------|
|------------------------------------------|
|------------------------------------------|
|--8---------------------------------------|
|--8----------------8--8-8-8-8-8--8------8-|
|--8----------------8--8-8-8-8-8--8------8-|


     PM--|     PM  PM   PM--|     PM    PM
   S T T S S S S S S  S T T S S S S S   S
|------------------------------------------|
|------------------------------------------|
|------------------------------------------|
|-12-0-0-0-3-8-0-7-0-12-0-0-0-3-8-0-7---0--|
|------------------------------------------|
|------------------------------------------|
|
|---------------------------------------|
|  S T T S S S T T S  S S T T S S S T T S
|------------------------------------------|
|------------------------------------------|
|------------------------------------------|
|------------------------------------------|
|--0-0-0-0-0-0-0-0-0--0-0-0-0-0-0-0-0-0-0--|
|--0-0-0-0-0-0-0-0-0--0-0-0-0-0-0-0-0-0-0--|


     PM--|     PM   PM   PM--|      PM    PM
   S T T S S S S  S S  S T T S S  S S S   S
|-------------------------------------------|
|-------------------------------------------|
|-------------------------------------------|
|-10-0-0-0-3-8-0-10-0-13-0-0-0-3-10-0-8---0-|
|-------------------------------------------|
|-------------------------------------------|
|
|  PM----------------------------------------
|  S T T S S S T  T S  S S T T S  S S T T S
|-------------------------------------------|
|-------------------------------------------|
|-------------------------------------------|
|-------------------------------------------|
|--0-0-0-0-0-0-0--0-0--0-0-0-0-0--0-0-0-0-0-|
|--0-0-0-0-0-0-0--0-0--0-0-0-0-0--0-0-0-0-0-|


      PM---|         PM    PM    PM---|         PM    PM
   S  T  T  S  S  S  S  S  S  S  T  T  S  S  S  S  S  S
|----------------------------------------------------------|
|----------------------------------------------------------|
|-12--0--0--0--3--8--0--7--0-12--0--0--0--3--8--0--7--0----|
|----------------------------------------------------------|
|----------------------------------------------------------|
|----------------------------------------------------------|
|
|-------------------------------------------------------|
|  S  T  T  S  S  S  T  T  S  S  S  T  T  S  S  S  T  T  S
|----------------------------------------------------------|
|----------------------------------------------------------|
|----------------------------------------------------------|
|----------------------------------------------------------|
|-10-10-10-10-10-10-10-10-10-10-10-10-10-10-10-10-10-10-10-|
|-10-10-10-10-10-10-10-10-10-10-10-10-10-10-10-10-10-10-10-|


     PM--|     PM   PM   PM--|      PM     PM
   S T T S S S S  S S  S T T S S  S S  S   S
|--------------------------------------------|
|--------------------------------------------|
|--------------------------------------------|
|-10-0-0-0-3-8-0-10-0-13-0-0-0-3-13-0-15---0-|
|--------------------------------------------|
|--------------------------------------------|
|
|  PM-----------------------------------------
|  S T T S S S T  T S  S S T T S  S S  T T S
|--------------------------------------------|
|--------------------------------------------|
|--------------------------------------------|
|--------------------------------------------|
|--8-8-8-8-8-8-8--8-8--8-8-8-8-8--8-8--8-8-8-|
|--8-8-8-8-8-8-8--8-8--8-8-8-8-8--8-8--8-8-8-|


  S S S S S S S S S S S S S S S S
|-------------------------------------------|
|-3---------------3-------------------------|
|-7-------3-------7-------3-----------------|
|-------3-----7---------3-----7-------------|
|---5-5-----5---5---5-5-----5---5-----------|
|-------------------------------------------|
|
|-----------------------------------------|
| T T T T T T T T S S S S S T T S S S S S S
|-------------------------------------------|
|-------------------------------------------|
|-------------------------------------------|
|-------------------------------------------|
|-0-0-0-0-0-0-0-0-0-0-0-0-0-0-0-0-0-0-0-0---|
|-0-0-0-0-0-0-0-0-0-0-0-0-0-0-0-0-0-0-0-0---|


     PM--|     PM   PM   PM--|      PM  PM
   S T T S S S S  S S  S T T S S  S S S S
|-----------------------------------------|
|-----------------------------------------|
|-----------------------------------------|
|-10-0-0-0-3-8-0-10-0-13-0-0-0-3-10-0-8-0-|
|-----------------------------------------|
|-----------------------------------------|
|
|  PM--------------------------------------
|  S S S S S S S  S S  S S T T S  S S S S
|-----------------------------------------|
|-----------------------------------------|
|-----------------------------------------|
|-----------------------------------------|
|--0-0-0-0-0-0-0--0-0------0-0-0------0---|
|--0-0-0-0-0-0-0--0-0------0-0-0------0---|


      PM---|         PM    PM    PM---|         PM            PM
   S  T  T  S  S  S  S  S  S  S  T  T  S  S  S  S  S          S
|----------------------------------------------------------------|
|----------------------------------------------------------------|
|-12--0--0--0--3--8--0--7--0-12--0--0--0--3--8--0--7----------0--|
|----------------------------------------------------------------|
|----------------------------------------------------------------|
|----------------------------------------------------------------|
|
|----------------------------------------------------------|
|  T  T  T  T  T  T  T  T  S  S  S  S  S  T  T  S  S  S  S  S S
|----------------------------------------------------------------|
|----------------------------------------------------------------|
|----------------------------------------------------------------|
|----------------------------------------------------------------|
|-10-10-10-10-10-10-10-10-10-10-10-10-10-10-10-10-10-10-10-10----|
|-10-10-10-10-10-10-10-10-10-10-10-10-10-10-10-10-10-10-10-10----|


     PM--|     PM   PM   PM--|      PM   PM
   S T T S S S S  S S  S T T S S  S S  S S
|------------------------------------------|
|------------------------------------------|
|------------------------------------------|
|-10-0-0-0-3-8-0-10-0-13-0-0-0-3-13-0-15-0-|
|------------------------------------------|
|------------------------------------------|
|
|  PM---------------------------------------
|  S S S S S S S  S S  S S T T S  S    S S
|------------------------------------------|
|------------------------------------------|
|------------------------------------------|
|------------------------------------------|
|--8-8-8-8-8-8-8--8-8------8-8-8-------8---|
|--8-8-8-8-8-8-8--8-8------8-8-8-------8---|


  S S S S S S S S S S S S S S S           S
|--------------------------------------------|
|--------------------------------------------|
|--------------------------------------------|
|-7-0-7-0-7-0-7-0-7-0-7-0-7-0-7-----------0--|
|--------------------------------------------|
|--------------------------------------------|
|
|---------------------------------------|
| T T T T T T T T S S S S S T T S S S S S S
|--------------------------------------------|
|--------------------------------------------|
|--------------------------------------------|
|--------------------------------------------|
|-0-0-0-0-0-0-0-0-0-0-0-0-0-0-0-0-0-0-0-0----|
|-0-0-0-0-0-0-0-0-0-0-0-0-0-0-0-0-0-0-0-0----|


  S S S S S S S S  S S  S S S S S   S
|-------------------------------------|
|-------------------------------------|
|-------------------------------------|
|-8-0-8-0-8-0-8-0-10-0-10-0-7-0-8---0-|
|-------------------------------------|
|-------------------------------------|
|
| PM-----------------------------------
| S S S S S S S S  S S  S T T S S S S
|-------------------------------------|
|-------------------------------------|
|-------------------------------------|
|-------------------------------------|
|-0-0-0-0-0-0-0-0--0------0-0-0---0---|
|-0-0-0-0-0-0-0-0--0------0-0-0---0---|


   S  S  S  S  S  S  S  S  S  S  S  S  S  S  S  S
|---------------------------------------------------------------|
|---------------------------------------------------------------|
|---------------------------------------------------------------|
|-12--0-12--0-12--0-12--0-12--0-12--0-12--0-12--0---------------|
|---------------------------------------------------------------|
|---------------------------------------------------------------|
|
|-------------------------------------------------------------|
|  T  T  T  T  T  T  T  T  S  S  S  S  S  T  T  S  S  S  S  S S
|---------------------------------------------------------------|
|---------------------------------------------------------------|
|---------------------------------------------------------------|
|---------------------------------------------------------------|
|-10-10-10-10-10-10-10-10-10-10-10-10-10-10-10-10-10-10-10-10---|
|-10-10-10-10-10-10-10-10-10-10-10-10-10-10-10-10-10-10-10-10---|


   S S  S S  S S  S S  S S  S S  S S  S   S
|-------------------------------------------|
|-------------------------------------------|
|-------------------------------------------|
|-12-0-12-0-12-0-12-0-13-0-13-0-15-0-15---0-|
|-------------------------------------------|
|-------------------------------------------|
|
|  PM----------------------------------------
|  S S  S S  S S  S S  S S  S T  T S  S S S
|-------------------------------------------|
|-------------------------------------------|
|-------------------------------------------|
|-------------------------------------------|
|--8-8--8-8--8-8--8-8--8------8--8-8----8---|
|--8-8--8-8--8-8--8-8--8------8--8-8----8---|


  S S S S S S S S S S S S S S S S
|-------------------------------------------|
|-------------------------------------------|
|-------------------------------------------|
|-7-0-7-0-7-0-7-0-7-0-7-0-7-0-7-0-----------|
|-------------------------------------------|
|-------------------------------------------|
|
|---------------------------------------|
| T T T T T T T T S S S S S T T S S S S S S
|-------------------------------------------|
|-------------------------------------------|
|-------------------------------------------|
|-------------------------------------------|
|-0-0-0-0-0-0-0-0-0-0-0-0-0-0-0-0-0-0-0-0---|
|-0-0-0-0-0-0-0-0-0-0-0-0-0-0-0-0-0-0-0-0---|


  S S S S S S S S  S S  S S S S S   S
|-------------------------------------|
|-------------------------------------|
|-------------------------------------|
|-8-0-8-0-8-0-8-0-10-0-10-0-7-0-8---0-|
|-------------------------------------|
|-------------------------------------|
|
| PM-----------------------------------
| S S S S S S S S  S S  S T T S S S S
|-------------------------------------|
|-------------------------------------|
|-------------------------------------|
|-------------------------------------|
|-0-0-0-0-0-0-0-0--0------0-0-0---0---|
|-0-0-0-0-0-0-0-0--0------0-0-0---0---|


   S  S  S  S  S  S  S  S  S  S  S  S  S  S  S  S
|---------------------------------------------------------------|
|---------------------------------------------------------------|
|---------------------------------------------------------------|
|-12--0-12--0-12--0-12--0-12--0-12--0-12--0-12--0---------------|
|---------------------------------------------------------------|
|---------------------------------------------------------------|
|
|----------------------------------------------------------|
|  T  T  T  T  T  T  T  T  S  S  S  S  S  T  T  S  S  S  S  S S
|---------------------------------------------------------------|
|---------------------------------------------------------------|
|---------------------------------------------------------------|
|---------------------------------------------------------------|
|-10-10-10-10-10-10-10-10-10-10-10-10-10-10-10-10-10-10-10-10---|
|-10-10-10-10-10-10-10-10-10-10-10-10-10-10-10-10-10-10-10-10---|


                              \6
                                       PM----------------------------------|
  S S S S S S S S S S S S S S E        T T S S S T T S S S T T S S T T S S S
|------------------------------------|---------------------------------------|
|------------------------------------|---------------------------------------|
|------------------------------------|---------------------------------------|
|-5-0-5-0-5-0-5-0-1-0-1-0-1-0-1------|---------------------------------------|
|------------------------------------|-0-0-0-0-0-0-0-0-0---0-0-0-0-0-0-0-0-0-|
|------------------------------------|-0-0-0-0-0-0-0-0-0---0-0-0-0-0-0-0-0-0-|
|
| PM-----------------------------|     PM----------------------------------|
| S S S S S S S S S S   T T S S  S S   T T S S S T T S S S T T S S T T S S S
|------------------------------------|---------------------------------------|
|------------------------------------|---------------------------------------|
|------------------------------------|---------------------------------------|
|------------------------------------|---------------------------------------|
|-8-8-8-8-8-8-8-8-8-----8-8-8----8---|-0-0-0-0-0-0-0-0-0---0-0-0-0-0-0-0-0-0-|
|-8-8-8-8-8-8-8-8-8-----8-8-8----8---|-0-0-0-0-0-0-0-0-0---0-0-0-0-0-0-0-0-0-|


  Gtrs I, II
  PM---------------------------------------------
  T T S T T S S T T S S T T T T T T T T S S S S
|-----------------------------------------------|
|-----------------------------------------------|
|-----------------------------------------------|
|-----------------------------------------------|
|-0-0-0-0-0-0-0-0-0-0-0-0-0-0-0-0-0-0-0-0-0-0-0-|
|-0-0-0-0-0-0-0-0-0-0-0-0-0-0-0-0-0-0-0-0-0-0-0-|


 -------------------------------------|
  T T S S S T T S S S T T S S S T T S S
|----------------------------------------|
|----------------------------------------|
|----------------------------------------|
|----------------------------------------|
|-0-0-0-0-0-0-0-0-0---0-0-0-0-0-0-0-0-0--|
|-0-0-0-0-0-0-0-0-0---0-0-0-0-0-0-0-0-0--|


  Gtr I
  PM--------------------------------------|   PM  PM--|   PM  PM--|
                        |-3-| |-3-|
  T T S T T S S T T S S E E E E E E   T T S S S S T T S S S S T T S S S S S
|-----------------------------------|---------------------------------------|
|-----------------------------------|---------------------------------------|
|-----------------------------------|-------7---8-------5---7-------7-5-----|
|-----------------------------------|-5-5-5---5---5-5-5---5---5-5-5-----8-7-|
|-0-0-0-0-0-0-0-0-0-0-0-0-0-0-0-0-0-|---------------------------------------|
|-0-0-0-0-0-0-0-0-0-0-0-0-0-0-0-0-0-|---------------------------------------|
|
| Gtr II
| PM----------------------------------------------------------------------|
|                       |-3-| |-3-|
| T T S T T S S T T S S E E E E E E   T T S S T T S S S S T T S S T T S S S
|-----------------------------------|---------------------------------------|
|-----------------------------------|---------------------------------------|
|-----------------------------------|---------------------------------------|
|-----------------------------------|---------------------------------------|
|-0-0-0-0-0-0-0-0-0-0-0-0-0-0-0-0-0-|-0-0-0-0-0-0-0-0-0---0-0-0-0-0-0-0-0-0-|
|-0-0-0-0-0-0-0-0-0-0-0-0-0-0-0-0-0-|-0-0-0-0-0-0-0-0-0---0-0-0-0-0-0-0-0-0-|


  PM--|   PM  PM--|   PM  PM--|
  T T S S S S T T S S S S T T S S S  S         S
|------------------------------------------------|
|------------------------------------------------|
|-------5---7-------8---7-------8-7-10---------8-|
|-5-5-5---5---5-5-5---5---5-5-5------------------|
|------------------------------------------------|
|------------------------------------------------|
|
| PM----------------------------------------------
| T T S T T S S T T S S T T T T T T  T T S S S S
|------------------------------------------------|
|------------------------------------------------|
|------------------------------------------------|
|------------------------------------------------|
|-0-0-0-0-0-0-0-0-0-0-0-0-0-0-0-0-0--0-0-0-0-0-0-|
|-0-0-0-0-0-0-0-0-0-0-0-0-0-0-0-0-0--0-0-0-0-0-0-|


  PM--|   PM  PM--|   PM  PM--|
  T T S S S S T T S S S S T T S S S S S
|-----------------------------------------|
|-----------------------------------------|
|-------7---8-------5---7-------7-5-------|
|-5-5-5---5---5-5-5---5---5-5-5-----8-7---|
|-----------------------------------------|
|-----------------------------------------|
|
|---------------------------------------|
| T T S S S T T S S S S T T S S T T S S S
|-----------------------------------------|
|-----------------------------------------|
|-----------------------------------------|
|-----------------------------------------|
|-0-0-0-0-0-0-0-0-0-0---0-0-0-0-0-0-0-0-0-|
|-0-0-0-0-0-0-0-0-0-0---0-0-0-0-0-0-0-0-0-|


  ~~~~~~~~~~~~~~~~~~~~~~~~~~          PM--------------------------|
                                      |-3-| |-3-| |-3-| |-3-| |-3-|
  H               Q       Q           E E E E E E S S S S S S E E E
|-----------------------------------|---------------------------------|
|-----------------------------------|---------------------------------|
|-5---------------3-------2---------|---------------------------------|
|-----------------------------------|---------------------------------|
|-----------------------------------|-0-0-0-0-0-0-0-0-0-0-0-0-0-0-0---|
|-----------------------------------|-0-0-0-0-0-0-0-0-0-0-0-0-0-0-0---|
|
| PM--------------------------------------------------------------|
|                       |-3-| |-3-|   |-3-| |-3-| |-3-| |-3-| |-3-|
| T T S T T S S T T S S E E E E E E   E E E E E E S S S S S S E E E
|-----------------------------------|---------------------------------|
|-----------------------------------|---------------------------------|
|-----------------------------------|---------------------------------|
|-----------------------------------|---------------------------------|
|-0-0-0-0-0-0-0-0-0-0-0-0-0-0-0-0-0-|-0-0-0-0-0-0-0-0-0-0-0-0-0-0-0---|
|-0-0-0-0-0-0-0-0-0-0-0-0-0-0-0-0-0-|-0-0-0-0-0-0-0-0-0-0-0-0-0-0-0---|


  Gtrs I, II
  PM-----------------------------------------------------------|
  |-3-| |-3-| |-3-| |-3-| |-3-|    |-3-| |-3-| |-3-| |-3-| |-3-|
  E E E E E E S S S S S S E E E    E E E E E E S S S S S S E E E
|--------------------------------|--------------------------------|
|--------------------------------|--------------------------------|
|--------------------------------|--------------------------------|
|--------------------------------|--------------------------------|
|-0-0-0-0-0-0-0-0-0-0-0-0-0-0-0--|-0-0-0-0-0-0-0-0-0-0-0-0-0-0-0--|
|-0-0-0-0-0-0-0-0-0-0-0-0-0-0-0--|-0-0-0-0-0-0-0-0-0-0-0-0-0-0-0--|


  PM------------------|
  |3| |-3-| |3| |-3-|
  E S S S S E S S S S Q  Q
|-----------------------------*|
|-----------------------------*|
|-----------------------------*|
|-----------------------------*|
|-0-0-0-0-0-0-0-0-0-0-0-------*|
|-0-0-0-0-0-0-0-0-0-0-0-------*|


Duration Legend
---------------
W - whole; H - half; Q - quarter; E - 8th; S - 16th; T - 32nd; X - 64th; a - acciaccatura
+ - note tied to previous; . - note dotted; .. - note double dotted
Uncapitalized letters represent notes that are staccato (1/2 duration)
Irregular groupings are notated above the duration line
Duration letters will always appear directly above the note/fret number it represents the
duration for.  Duration letters with no fret number below them represent rests.  Multi-
bar rests are notated in the form Wxn, where n is the number of bars to rest for.  Low
melody durations appear below the staff

Tablature Legend
----------------
 h   - hammer-on
 p   - pull-off
 b   - bend
 pb  - pre-bend
 r   - bend release (if no number after the r, then release immediately)
 /\  - slide into or out of (from/to "nowhere")
 s   - legato slide
 S   - shift slide
  - natural harmonic
[n]  - artificial harmonic
n(n) - tapped harmonic
 ~   - vibrato
 tr  - trill
 T   - tap
 TP  - trem. picking
 PM  - palm muting
\n/  - tremolo bar dip; n = amount to dip
 \n  - tremolo bar down
 n/  - tremolo bar up
/n\  - tremolo bar inverted dip
 =   - hold bend; also acts as connecting device for hammers/pulls
 <>  - volume swell (louder/softer)
 x   - on rhythm slash represents muted slash
 o   - on rhythm slash represents single note slash

Misc Legend
-----------
 |  - bar
||  - double bar
||o - repeat start
o|| - repeat end
*|  - double bar (ending)
 :  - bar (freetime)
 $  - Segno
 &  - Coda
Tempo markers -  = BPM(8/16=s8/s16), where s8 = swing 8ths, s16 = swing 16ths
Tap to rate this tab
# A B C D E F G H I J K L M N O P Q R S T U V W X Y Z