Song name
# A B C D E F G H I J K L M N O P Q R S T U V W X Y Z

Misc Unsigned Bands - Fourth Plane Music - Best I Ever Had tab

Vertical Horizon - Best I Ever Had
Tabbed by: Julio Cesar Gawleta

http://www.youtube.com/user/FourthPlaneMusic

Video of me playing/singing it:
http://www.youtube.com/watch?v=6as7BYQVuLI

Tuning: Eb Ab Db Gb Bb Eb

Intro:(2x)

 G  Am7  C9  G  D9/F#
-3---0---3---3--3---|
-3---1---3---3--3---|
-0---0---0---0--2---|
-0---2---2---0--0---|
-x---0---3---x--0---|
-3-----------3--2---|

Verse:

 G  Am7  C9  G  D9/F#
-3---0---3---3--3--|
-3---1---3---3--3--|
-0---0---0---0--2--|
-0---2---2---0--0--|
-x---0---3---x--0--|
-3-----------3--2--|

Pre Chorus:

 Am  Em  Am  Em D
-0---0---0---0--2--|
-1---0---1---0--3--|
-2---0---2---0--2--|
-2---2---2---2--0--|
-0---2---0---2-----|
-----0-------0-----|

Chorus:
 
 G  Am7  C9  G D9/F# Em Am7 C9   G  D9/F#
-3---0---3---3---3---0---0---3---3--3---|
-3---1---3---3---3---0---1---3---3--3---|
-0---0---0---0---2---0---0---0---0--2---|
-0---2---2---0---0---2---2---2---0--0---|
-x---0---3---x---0---2---0---3---x--0---|
-3-----------3---2---0-----------3--2---|

Bridge:

 F   G   C9 G  Am  F   G   Em  F   G   C9 G  Am  F   G
-1---3---3--3--0---1---3---0---1---3---3--3--0---1---3--|
-1---3---3--3--1---1---3---0---1---3---3--3--1---1---3--|
-2---0---0--0--2---2---0---0---2---0---0--0--2---2---0--|
-3---0---2--0--2---3---0---2---3---0---2--0--2---3---0--|
-3---x---3--x--0---3---x---2---3---x---3--x--0---3---x--|
-1---3------3------1---3---0---1---3------3------1---3--|

Outro:

 G  Am7  C9  G  D9/F# Em Am7 C9   G  D9/F# G
-3---0---3---3---3----0---0---3---3---3----3--|
-3---1---3---3---3----0---1---3---3---3----3--|
-0---0---0---0---2----0---0---0---0---2----0--|
-0---2---2---0---0----2---2---2---0---0----0--|
-x---0---3---x---0----2---0---3---x---0----x--|
-3-----------3---2----0-----------3---2----3--|
Tap to rate this tab
# A B C D E F G H I J K L M N O P Q R S T U V W X Y Z