Song name
# A B C D E F G H I J K L M N O P Q R S T U V W X Y Z

Misc Unsigned Bands - 7horse - Meth Lab Zoso Sticker tab

Tabbed By: HollowCam
Artist: 7Horse
Song Title: Meth Lab Zoso Sticker
Featured in: Wolf of Wall Street
Chords: Some
String Switches: Lots
Difficulty: 4/10
Translated to tab: By Ear
Accuracy: Unsure
Tuning: Standard
Band Website: http://7horsemusic.com

Guitar Begins at 0:12

E-1-3-1----------------------------------------------------------|
B-------3-0---------3-0------------------------------------------|
G-----------3-4-3-4-----3-0-3-0----------------------------------|   3x
D----------------------------------------------------------------|
A----------------------------------------------------------------|
E----------------------------------------------------------------|

E-1-3-1---------------0------------------------------------------|
B-------3-0---------3-0------------------------------------------|
G-----------3-4-3-4---0------------------------------------------|
D---------------------3------------------------------------------|
A---------------------3------------------------------------------|
E---------------------3------------------------------------------|

E-1-3-1----------------------------------------------------------|
B-------3-0---------3-0------------------------------------------|
G-----------3-4-3-4-----3-0--------------------------------------|   3x
D---------------------------3-2----------------------------------|
A----------------------------------------------------------------|
E----------------------------------------------------------------|


E-1-3-1---------------0------------------------------------------|
B-------3-0---------3-0------------------------------------------|
G-----------3-4-3-4---0------------------------------------------|
D---------------------3------------------------------------------|
A---------------------3------------------------------------------|
E---------------------3------------------------------------------|

E-1-3-1----------------------------------------------------------|
B-------3-0---------3-0------------------------------------------|
G-----------3-4-3-4-----3-0--------------------------------------|   3x
D---------------------------3-2----------------------------------|
A----------------------------------------------------------------|
E----------------------------------------------------------------|


E-1-3-1---------------0------------------------------------------|
B-------3-0---------3-0------------------------------------------|
G-----------3-4-3-4---0------------------------------------------|
D---------------------3------------------------------------------|
A---------------------3------------------------------------------|
E---------------------3------------------------------------------|


E----------------------------------------------------------------|
B-----3-----3-----3-----3-------------3--------------------------|
G-3-4---3-4---3-4---3-4---3-0-----3-4---3-0-----3-0--------------|    2x
D-----------------------------3-2-----------3-2-----3-2----------|
A----------------------------------------------------------------|
E----------------------------------------------------------------|

E-0--0---0-0-----------------------------------------------------|
B-1--1---0-0-----------------------------------------------------|
G-2--2---0-0-0---------------------------------------------------|
D-2--2---3-0-2---------------------------------------------------|
A--------3-0-2---------------------------------------------------|
E--------3-0-3---------------------------------------------------|

E-1-3-1----------------------------------------------------------|
B-------3-0---------3-0------------------------------------------|
G-----------3-4-3-4-----3-0--------------------------------------|   3x
D---------------------------3-2----------------------------------|
A----------------------------------------------------------------|
E----------------------------------------------------------------|


E-1-3-1---------------0------------------------------------------|
B-------3-0---------3-0------------------------------------------|
G-----------3-4-3-4---0------------------------------------------|
D---------------------3------------------------------------------|
A---------------------3------------------------------------------|
E---------------------3------------------------------------------|


E----------------------------------------------------------------|
B-----3-----3-----3-----3-------------3--------------------------|
G-3-4---3-4---3-4---3-4---3-0-----3-4---3-0-----3-0--------------|    2x
D-----------------------------3-2-----------3-2-----3-2----------|
A----------------------------------------------------------------|
E----------------------------------------------------------------|

E-0--0---0-0-----------------------------------------------------|
B-1--1---0-0-----------------------------------------------------|
G-2--2---0-0-0---------------------------------------------------|    8x
D-2--2---3-0-2---------------------------------------------------|
A--------3-0-2---------------------------------------------------|
E--------3-0-3---------------------------------------------------|

Long Pause

E-1-3-1----------------------------------------------------------|
B-------3-0---------3-0------------------------------------------|
G-----------3-4-3-4-----3-0--------------------------------------|   2x
D---------------------------3-2----------------------------------|
A----------------------------------------------------------------|
E----------------------------------------------------------------|

E-1-3-1----------------------------------------------------------|
B-------3-0---------3-0-----3-----3------------------------------|
G-----------3-4-3-4-----3-4---3-4--------------------------------|
D----------------------------------------------------------------|
A----------------------------------------------------------------|
E----------------------------------------------------------------|

E-1-3-1----------------------------------------------------------|
B-------3-0---------3-0------------------------------------------|
G-----------3-4-3-4-----3-0--------------------------------------|   2x
D---------------------------3-2----------------------------------|
A----------------------------------------------------------------|
E----------------------------------------------------------------|

E-1-3-1----------------------------------------------------------|
B-------3-0---------3-0-----3-----3------------------------------|
G-----------3-4-3-4-----3-4---3-4--------------------------------|
D----------------------------------------------------------------|
A----------------------------------------------------------------|
E----------------------------------------------------------------|

E-1-3-1----------------------------------------------------------|
B-------3-0---------3-0------------------------------------------|
G-----------3-4-3-4-----3-0--------------------------------------|   2x
D---------------------------3-2----------------------------------|
A----------------------------------------------------------------|
E----------------------------------------------------------------|

E-1-3-1----------------------------------------------------------|
B-------3-0---------3-0-----3-----3------------------------------|
G-----------3-4-3-4-----3-4---3-4--------------------------------|
D----------------------------------------------------------------|
A----------------------------------------------------------------|
E----------------------------------------------------------------|

E-1-3-1----------------------------------------------------------|
B-------3-0---------3-0------------------------------------------|
G-----------3-4-3-4-----3-0--------------------------------------|   2x
D---------------------------3-2----------------------------------|
A----------------------------------------------------------------|
E----------------------------------------------------------------|

E-1-3-1----------------------------------------------------------|
B-------3-0---------3-0-----3-----3------------------------------|
G-----------3-4-3-4-----3-4---3-4--------------------------------|
D----------------------------------------------------------------|
A----------------------------------------------------------------|
E----------------------------------------------------------------|

E-2-2---2-2-2----------------------------------------------------|
B-3-3---3-3-3--1-1-1-1-------------------------------------------|
G-2-2---2-2-2--2-2-2-2-------------------------------------------|
D--------------2-2-2-2-------------------------------------------|
A--------------0-0-0-0-------------------------------------------|
E----------------------------------------------------------------|

E-1-3-1----------------------------------------------------------|
B-------3-0---------3-0------------------------------------------|
G-----------3-4-3-4-----3-0--------------------------------------|
D---------------------------3-2----------------------------------|
A----------------------------------------------------------------|
E----------------------------------------------------------------|

E-1-3-1----------------------------------------------------------|
B-------3-0---------3-0-----3-----3------------------------------|
G-----------3-4-3-4-----3-4---3-4--------------------------------|
D----------------------------------------------------------------|
A----------------------------------------------------------------|
E----------------------------------------------------------------|

E-1-3-1----------------------------------------------------------|
B-------3-0---------3-0------------------------------------------|
G-----------3-4-3-4-----3-0--------------------------------------|
D---------------------------3-2----------------------------------|
A----------------------------------------------------------------|
E----------------------------------------------------------------|
                        Music Fades.....
E-1-3-1---------------0------------------------------------------|
B-------3-0---------3-0------------------------------------------|
G-----------3-4-3-4---0------------------------------------------|
D---------------------3------------------------------------------|
A---------------------3------------------------------------------|
E---------------------3------------------------------------------|

Song End
Sorry if parts seem inaccurate, I know some of it is, feel free to improve upon 
anything, if you know it is incorrect.
Thanks,
-HollowCam
Tap to rate this tab
# A B C D E F G H I J K L M N O P Q R S T U V W X Y Z