Song name
# A B C D E F G H I J K L M N O P Q R S T U V W X Y Z

Misc Unsigned Bands - Dear Mister Manager - Bad Neighbors tab

-----------------------------------------------------------------------------
                         Bad Neighbors - Dear Mister Manager
-----------------------------------------------------------------------------
Tabbed by: Jalxleo

Tuning: Drop D DADGBe

Awesome band, might tab out more songs by them
I'm pretty sure most of it's right

INTRO
Guitar 1 
e|2-------2-7-------7|  |2-------2--7|
B|--3---3-----8---8--|  |--3---3-----|
G|-------------------|X3|------------|
D|0---0-----5---5----|  |0---0------5|
A|-------------------|  |------------|
D|-------------------|  |------------|

Verse 
Guitar 1
e|2-------2-7-------7|
B|--3---3-----8---8--|
G|-------------------|
D|0---0-----5---5----|
A|-------------------|
D|-------------------|

 Guitar 2 
e|------------2-----2|
B|--2---3-2-5---5-2--|
G|2---2--------------|
D|-------------------|
A|-------------------|
D|-------------------|

BREAK
Guitar 1
e|7-----7-----7----7----|7-----7-----7-----7----|
B|--7-----7-----7----7--|--7-----7-----7-----7--|
G|----------------------|-----------------------|
D|----5-----5-----5----5|----5-----5-----5-----5|
A|----------------------|-----------------------|
D|----------------------|-----------------------|

Guitar 2
e|11--------------------|12---------------------|
B|11--------------------|12---------------------|
G|11--------------------|12---------------------|
D|----------------------|-----------------------|
A|----------------------|-----------------------|
D|----------------------|-----------------------|

VERSE
Guitar 1
e|2-------2-7-------7|
B|--3---3-----8---8--|
G|-------------------|
D|0---0-----5---5----|
A|-------------------|
D|-------------------|

 
Guitar 2 
e|------------2-----2|
B|--2---3-2-5---5-2--|
G|2---2--------------|
D|-------------------|
A|-------------------|
D|-------------------|

Solo
Guitar 2
e|-------------------|
B|-------------------|
G|-------------------|
D|4-4-4-4-4-4-4-9-9-9|
A|4-4-4-4-4-4-4-9-9-9|
D|4-4-4-4-4-4-4-9-9-9|

Guitar 1
e|--------------------------------------------------------|
B|---10---------10/12-10------10--------------------------|
G|11----11-9-11----------11-9----11-9-11-9---------------9|
D|-----------------------------------------12-11-9-11-12--|
A|--------------------------------------------------------|
D|--------------------------------------------------------|

Outro
Guitar 1
e|--------------------------------------------|
B|---------------10-10----------------10h12p10|
G|11-9----9-11-9-------11-9----9-11-9---------|
D|-----12-------------------12----------------|
A|--------------------------------------------|
D|--------------------------------------------|

Guitar 2
e|--------------------------------------------|
B|--5---------------------5-------------------|
G|7---7-----------------7---7-----------------|
D|--------------------------------------------|
A|--------------------------------------------|
D|--------------------------------------------|


************************************

| /   slide up
| \   slide down
| h   hammer-on
| p   pull-off
| ~   vibrato
| +   harmonic
| x   Mute note
| b   Bend
| pb  Pre-bend
| br  Bend release
| pbr Pre-bend release
| brb Bend release bend

************************************
Tap to rate this tab
# A B C D E F G H I J K L M N O P Q R S T U V W X Y Z