Song name
# A B C D E F G H I J K L M N O P Q R S T U V W X Y Z

Misc Unsigned Bands - Claude Channes - Mao Mao chords

Highlighted       Show chord diagrams
From La Chinoise (1967)

INTRO RIFF:
E|----------------------------|-----------|
B|----------------------------|-----------|
G|----------------------------|-----------|
D|-----------------2----------|-----------|
A|--------0--2--4-----4v------|--2--0-----|
E|--2--4----------------------|--------4--|

ALTERNATIVE INTRO RIFF:
E|------------------------------|-----------|
B|-----------------5------------|-----------|
G|-----------4--6-----6v--------|--4--------|
D|--4--6--7---------------------|-----7--6--|
A|------------------------------|-----------|
E|------------------------------|-----------|

LICK:

E|-----------|
B|-----------|
G|-----------|
D|-----------|
A|--2--0-----|
E|--------4--|


F#m                         E            (LICK1)
Le Vietnam brûle et moi je hurle Mao Mao
F#m                       E            (LICK1)
Johnson rigole et moi je vole Mao Mao
A           E              F#m
Le napalm coule et moi je roule Mao Mao
A            E                F#m
Les villes crèvent et moi je rêve Mao Mao
E                             F#m
Les putains crient et moi je ris Mao Mao
E                         F#m
Le riz est fou et moi je joue Mao Mao


A                     B
C'est le petit livre rouge
D                        E
Qui fait que tout enfin bouge

E                F#m
L'impérialisme dicte partout sa loi
E                   F#m
La révolution n'est pas un dîner
E                       F#m
La bombe A est un tigre en papier
E                     F#m            (LICK1)
Les masses sont les véritables héros

F#m                          E            (LICK1)
Les Ricains tuent et moi je mue Mao Mao
F#m                           E            (LICK1)
Les fous sont rois et moi je bois Mao Mao
A             E              F#m
Les bombes tonnent et moi je sonne Mao Mao
A          E               F#m
Les bébés fuient et moi je fuis Mao Mao
E                            F#m
Les Russes mangent et moi je danse Mao Mao
E                  F#m
Giap dénonce, je renonce Mao Mao


A                     B
C'est le petit livre rouge
D                        E
Qui fait que tout enfin bouge

E                     F#m
La base de l'armée, c'est le soldat
E                          F#m
Le vrai pouvoir est au bout du fusil
E                        F#m
Les monstres seront tous anéantis
E                     F#m            (LICK1)
L'ennemi ne périt pas de lui-même

INTRO RIFF
Mao Mao
Mao Mao
Mao Mao
Tap to rate this tab
# A B C D E F G H I J K L M N O P Q R S T U V W X Y Z