Song name
# A B C D E F G H I J K L M N O P Q R S T U V W X Y Z

Misc Unsigned Bands - Claim The Throne - Zephyrus tab

riff-a
d|---------------------------------------------------------------------------|
a|--10--8----8--10------10-8----8-10-8--8-10-13-b17-15-13-15-17--15----------|
f|-7------10-------7--7------10----------------------------------------------|
c|---------------------------------------------------------------------------|
g|---------------------------------------------------------------------------|
d|---------------------------------------------------------------------------|

d|-17-15-13-----17-15-13---17-15-17-s19-17-19-b21----------------------------|
a|----------15-----------17--------------------------------------------------|
f|---------------------------------------------------------------------------|
c|---------------------------------------------------------------------------|
g|---------------------------------------------------------------------------|
d|---------------------------------------------------------------------------|
riff-b
d|----------------------------------------------------------------------------|
a|----------------------------------------------------------------------------|
f|-7-10-12-14--17-15-14-s12---12-14-15-14-------------------------------------|
c|----------------------------------------------------------------------------|
g|----------------------------------------------------------------------------|
d|----------------------------------------------------------------------------|
riff-c
d|---------------------------------------------------------------------------|
a|--10-8-10-8-6-10s11-10-8-10-8-6--8-10-8-6-5-3--6-5-3--6s8-6-5-5h6--3-1-1h3-|
f|-7-------------------------------------------------------------------------|
c|---------------------------------------------------------------------------|
g|---------------------------------------------------------------------------|
d|---------------------------------------------------------------------------|

d|---------------------------------------------------------------------------|
a|-3-5-s6-3p5-6s8-5p6-5h6--3-1-1h3-------------------------------------------|
f|---------------------------------------------------------------------------|
c|---------------------------------------------------------------------------|
g|---------------------------------------------------------------------------|
d|---------------------------------------------------------------------------|
for the intro
riff-a {x2}
riff-b {x4}
riff-c {x1}
for the verse-riff-a
for the chorus
d|------------------------------------------------------------------------|
a|------------------------------------------------------------------------|
f|-7-10-12-14---10-9-10-9-p7-5--14-12-14-12-p10-9--17-14-17-19------------|
c|------------------------------------------------------------------------|
g|------------------------------------------------------------------------|
d|------------------------------------------------------------------------|
Tap to rate this tab
# A B C D E F G H I J K L M N O P Q R S T U V W X Y Z