Song name
# A B C D E F G H I J K L M N O P Q R S T U V W X Y Z

Misc Unsigned Bands - Rohit John Chettri - Bistarai Bistarai tab

Hello guys this a solo lesson of song called " Bistarai bistarai " by Rohit John 
Chettri.....I have searched this solo ..by listening to this song...hope you like it..

Tuining: Standard "E"

E|----------------------------------------------------------|
B|------12---12---10---9------------------------------------|
G|--9----------------------11---9---11---11/13---13/14---13-|
D|----------------------------------------------------------|
A|----------------------------------------------------------|
E|----------------------------------------------------------|



E|-----------------------------------------------------------|
B|-------12---12---10---9------------------------------------|
G|---9----------------------11---9---11---11/13---11---9---9-|
D|-----------------------------------------------------------|
A|-----------------------------------------------------------|
E|-----------------------------------------------------------|



E|-----------------------------------------------------11h12--11-------------16--16--|
B|----------------------------------12--12--12------9-------------12--12/14----------|
G|------8--9--9/11--11P9--11--9--9--------------11-----------------------------------|
D|-/9--------------------------------------------------------------------------------|
A|-----------------------------------------------------------------------------------|
E|-----------------------------------------------------------------------------------|



E|---------------------------------------------------12--12--11---------------------------|
B|------------------------------12---12---12------9--------------12/14--12--12------------|
G|------9--11--11/13--13--9--9----------------11-------------------------------11--11--9--|
D|--11------------------------------------------------------------------------------------|
A|----------------------------------------------------------------------------------------|
E|----------------------------------------------------------------------------------------|


tab by Rohit Shrestha
for any feedback mail me :@rohitshrestha7@gmail.com
Tap to rate this tab
# A B C D E F G H I J K L M N O P Q R S T U V W X Y Z