Song name
# A B C D E F G H I J K L M N O P Q R S T U V W X Y Z

Misc Unsigned Bands - Robert Bearsby - Ill Adore You For Tonight tab

-------------------------------------------------------------------------------
                             I’ll Adore You, For Tonight - Robert Bearsby
-------------------------------------------------------------------------------
Tabbed by: Robert Bearsby

Tuning: Standard
Capo: 4th Fret

Intro:

e|-----------------------------------------------------------------------------|
B|--------1--------------1---------------1---------------1---------------------|
G|-----0---0 0-------0---0-0------------0-0-------------0-0-----------|    X 2-|
D|------------------------------------2---------------2------------------------|
A|--3-------------3--------------0----------------0----------------------------|
E|-----------------------------------------------------------------------------|

Verse 1:  “Laying awake...”

e|-----------------------------------------------------------------------------|
B|--------1--------------1---------------1---------------1---------------------|
G|-----0---0 0-------0---0-0------------0-0-------------0-0-----------|    X 4-|
D|------------------------------------2---------------2------------------------|
A|--3-------------3--------------0----------------0----------------------------|
E|-----------------------------------------------------------------------------|

“we listen to..”
e|-----------------------------------------------------------------------------|
B|--------1--------------1---------------1---------------1---------------------|
G|-----0---0 0-------0---0-0------------0-0-------------0-0-----------|    X 3-|
D|------------------------------------2---------------2------------------------|
A|--1-------------1--------------0----------------0----------------------------|
E|-----------------------------------------------------------------------------|

“and as the waves...”
e|-----------------------------------------------------------------------------|
B|--------1--------------1---------------1---------------1---------------------|
G|-----0---0 0-------0---0-0------------0-0-------------0-0-----------|    X 2-|
D|------------------------------------2---------------2------------------------|
A|--3-------------3--------------0----------------0----------------------------|
E|-----------------------------------------------------------------------------|






“that you can make...”
e|-----------------------------------------------------------------------------|
B|--------1--------------1---------------3---------------3---------------------|
G|-----0---0 0-------0---0-0------------0-0------------0-0---------------------|
D|--------------------------------------0--------------0-----------------------|
A|--1-------------1--------------3----------------3----------------------------|
E|-----------------------------------------------------------------------------|

“ ...(pause)... water”
e|-----------------------------------------------------------------------------|
B|--------1--------------1---------------1-------------------------------------|
G|-----0---0 0-------0---0-0-------0-----0-0------------------------|    X 2---|
D|-----------------------------------------------------------------------------|
A|--3-------------3--------------3----------------3----------------------------|
E|-----------------------------------------------------------------------------|

Chorus:

       F C G
and i’ll adore you
       F C G
and i’ll adore you
      F C G
and i’ll adore you, for tonight.


Verse 2:

e|-----------------------------------------------------------------------------|
B|--------1--------------1---------------1---------------1---------------------|
G|-----0---0 0-------0---0-0------------0-0-------------0-0-----------|    X 6-|
D|------------------------------------2---------------2------------------------|
A|--3-------------3--------------0----------------0----------------------------|
E|-----------------------------------------------------------------------------|

e|-----------------------------------------------------------------------------|
B|--------1--------------1---------------3---------------3---------------------|
G|-----0---0 0-------0---0-0------------0-0------------0-0-----------|   X 2---|
D|--------------------------------------0--------------0-----------------------|
A|--1-------------1--------------3----------------3----------------------------|
E|-----------------------------------------------------------------------------|




Chorus:

       F C G
and i’ll adore you
       F C G
and i’ll adore you
      F C G
and i’ll adore you, for tonight.


Middle Eight: “he doesn’t even know your name..”

e|-------0---0--------------------------------------------------------------------|
B|-------1-----1------------------1------1------1---------------------------------|
G|------ 2---------------0--------0--------------0--------------------------| X 4-|
D|---3--3-----------0------------2--------------2---------------------------------|
A|--------------------2-------0---0----------0--0---------------------------------|
E|-----------------3-3------------------------------------------------------------|

Verse 3:

e|-----------------------------------------------------------------------------|
B|--------1--------------1---------------1---------------1---------------------|
G|-----0---0 0-------0---0-0------------0-0-------------0-0-----------|    X 2-|
D|------------------------------------2---------------2------------------------|
A|--3-------------3--------------0----------------0----------------------------|
E|-----------------------------------------------------------------------------|

“laying awake..”
e|-----------------------------------------------------------------------------|
B|--------1--------------1---------------1---------------1---------------------|
G|-----0---0 0-------0---0-0------------0-0-------------0-0-----------|    X 2-|
D|------------------------------------2---------------2------------------------|
A|--3-------------3--------------0----------------0----------------------------|
E|-----------------------------------------------------------------------------|


“So I listen to..”
e|-----------------------------------------------------------------------------|
B|--------1--------------1---------------1---------------1---------------------|
G|-----0---0 0-------0---0-0------------0-0-------------0-0-----------|    X 3-|
D|------------------------------------2---------------2------------------------|
A|--1-------------1--------------0----------------0----------------------------|
E|-----------------------------------------------------------------------------|



“and as the waves...
e|-----------------------------------------------------------------------------|
B|--------1--------------1---------------1---------------1---------------------|
G|-----0---0 0-------0---0-0------------0-0-------------0-0-----------|    X 2-|
D|------------------------------------2---------------2------------------------|
A|--3-------------3--------------0----------------0----------------------------|
E|-----------------------------------------------------------------------------|

“that you can make...”
e|-----------------------------------------------------------------------------|
B|--------1--------------1---------------3-------------------------------------|
G|-----0---0 0-------0---0-0------------0-0------------------------------------|
D|--------------------------------------0--------------------------------------|
A|--1-------------1--------------3----------------3----------------------------|
E|-----------------------------------------------------------------------------|

“ ...(pause)... water” End on C

************************************

| /   slide up
| \   slide down
| h   hammer-on
| p   pull-off
| ~   vibrato
| +   harmonic
| x   Mute note
| b   Bend
| pb  Pre-bend
| br  Bend release
| pbr Pre-bend release
| brb Bend release bend

************************************
Tap to rate this tab
# A B C D E F G H I J K L M N O P Q R S T U V W X Y Z