Song name
# A B C D E F G H I J K L M N O P Q R S T U V W X Y Z

Misc Unsigned Bands - Tainted Wounds - Shadow Of The Martyr tab

Title: Tainted Wounds
SubTitle: https://www.facebook.com/pages/Shadow-Of-The-Martyr/116941348486934
Artist: Shadow Of The Martyr
Album: Venom For A Dark Heart
Words: Sofia A.
Music: John T. Quest D. Orion J. & Matt O.
Copyright: Shadow Of The Martyr
Tempo = 150
Lead Guitar (Quest)

Legend
L - tied note
x - dead note
h - hammer on/pull off
b - bend
s - slide
~ - vibrato
g - ghost note
> - accentuated note
t - trill
M - palm mute
. - staccato
P - popping (bass)
S - slapping (bass)
+ - tapping
W - wide vibrato
< - fade in
w - whammy bar
= - tremolo picking
v - brush up
^ - brush down
V - pick stroke up
n - pick stroke down


D |----------------------------|----------------------------|
A |--------10-------10----10---|--------10-------10----10---|
F |----------------------------|----------------------------|
C |--7--7-----7--7-----7-------|--7--7-----7--7-----7-------|
G |----------------------------|----------------------------|
C |----------------------------|----------------------------|


----------------------------|----------------------------|
--------10-------10----10---|--------10-------10----10---|
----------------------------|----------------------------|
--7--7-----7--7-----7-------|--7--7-----7--7-----7-------|
----------------------------|----------------------------|
----------------------------|----------------------------|


----------------------------|-------|
--------10-------10----10---|-------|
----------------------------|-------|
--7--7-----7--7-----7-------|-------|
----------------------------|-------|
----------------------------|-------|


--------12----12-10-8-----8-------------------------|
-----------------------10---------------------------|
----------------------------------------------------|
--7M------------------------------------------------|
----------------------------------------------------|
----------------------------------------------------|


--8-----10-------8-----7----|-----10----8-----7-----8s---|--12-10-8--7----|
----------------------------|----------------------------|----------------|
--------------------10------|----------------------------|----------------|
-----7M----7M---------------|--5M----5M----5M----5M------|----------------|
--------------8M------------|----------------------------|----------------|
----------------------------|----------------------------|----------------|


--------12----12-10-8-----12------------------------|--12b15~--|--17---|--19---|
-----------------------10---------------------------|----------|-------|-------|
----------------------------------------------------|----------|-------|-------|
--7M------------------------------------------------|----------|-------|-------|
----------------------------------------------------|----------|-------|-------|
----------------------------------------------------|----------|-------|-------|


----------------------------|----------------------------|
--10-10-10-10-10-10-10-10---|--10-10-10-10-8--8--8--8----|
--9--9--9--9--9--9--9--9----|--9--9--9--9--9--9--9--9----|
--10-10-10-10-10-10-10-10---|--10-10-10-10-10-10-10-10---|
----------------------------|----------------------------|
----------------------------|----------------------------|


----------------------------|----------------------------|
--10-10-10-10-10-10-10-10---|--8--8--8--8--8--8--8--8----|
--9--9--9--9--9--9--9--9----|--9--9--9--9--9--9--9--9----|
--10-10-10-10-10-10-10-10---|--10-10-10-10-10-10-10-10---|
----------------------------|----------------------------|
----------------------------|----------------------------|


----------------------------|--13~--|----------------------------|--13~15~--|
----------------------------|-------|-----------10-------12------|----------|
--12-------12-------12------|-------|--12------------------------|----------|
-----10-------10-------10---|-------|-----10-------10-------10---|----------|
--------14-------14---------|-------|--------14-------14---------|----------|
----------------------------|-------|----------------------------|----------|


----------------------------------------------------|
----------------------------------------------------|
--------------------9-------------------------------|
--------------------------------10----------9-------|
----------------------------------------------------|
--7M----7M-7M-7M----------7M----------7M------------|


----------------------------------------------------|
--------------------------8-------------------------|
--------------------------------9-------------------|
--------------------------------------10----9-------|
----------------------------------------------------|
--7M-7M-7M----7M-7M-7M------------------------------|


----------------------------------------------------|
----------------------------------------------------|
--------------------7-----------------9-------------|
--------------------------------9-------------------|
----------------------------------------------------|
--5M----5M-5M-5M----------5M----------------5M------|


----------------------------|
----------------------------|
--7-----------7-------------|
--------9--------9--7--9----|
----------------------------|
-----5M----5M---------------|


----------------------------------------------------|----------------|-------|
----------------------------------------------------|--------8L------|--8----|
----------------------------------------------------|-----9L-9L------|--9----|
----------------------------------------------------|--7L-7L-7L------|--7----|
--3M----3M-3M-3M----3M----3M----3M-3M-3M----3M------|----------------|-------|
--3M----3M-3M-3M----3M----3M----3M-3M-3M----3M------|----------------|-------|


----------------|--------12----12-10-8-----8-------------------------|
--10L10L10L10---|-----------------------10---------------------------|
-----12L12L12---|----------------------------------------------------|
--------14L14---|--7M------------------------------------------------|
----------------|----------------------------------------------------|
----------------|----------------------------------------------------|


--8-----10-------8-----7----|-----10----8-----7-----8s---|--12-10-8--7----|
----------------------------|----------------------------|----------------|
--------------------10------|----------------------------|----------------|
-----7M----7M---------------|--5M----5M----5M----5M------|----------------|
--------------8M------------|----------------------------|----------------|
----------------------------|----------------------------|----------------|


--------12----12-10-8-----12------------------------|--12b15~--|
-----------------------10---------------------------|----------|
----------------------------------------------------|----------|
--7M------------------------------------------------|----------|
----------------------------------------------------|----------|
----------------------------------------------------|----------|


----------------------------|----------------------------|
--10L10L10~10L10L10-10L10---|--10L10L10-10L10L10-10L10---|
----------------------------|----------------------------|
-----7--7L-7--7--7L-7--7L---|--7--7--7L-7--7--7L-7--7----|
----------------------------|----------------------------|
----------------------------|----------------------------|


----------------------------|----------------------------|
--10-10-10-10-10-10-10-10---|--10-10-10-10-8--8--8--8----|
--9--9--9--9--9--9--9--9----|--9--9--9--9--9--9--9--9----|
--10-10-10-10-10-10-10-10---|--10-10-10-10-10-10-10-10---|
----------------------------|----------------------------|
----------------------------|----------------------------|


----------------------------|----------------------------|
--10-10-10-10-10-10-10-10---|--8--8--8--8--8--8--8--8----|
--9--9--9--9--9--9--9--9----|--9--9--9--9--9--9--9--9----|
--10-10-10-10-10-10-10-10---|--10-10-10-10-10-10-10-10---|
----------------------------|----------------------------|
----------------------------|----------------------------|


----------------------------|----------------------------|
--10-10-10-10-10-10-10-10---|--10-10-10-10-8--8--8--8----|
--9--9--9--9--9--9--9--9----|--9--9--9--9--9--9--9--9----|
--10-10-10-10-10-10-10-10---|--10-10-10-10-10-10-10-10---|
----------------------------|----------------------------|
----------------------------|----------------------------|


----------------------------|----------------------------|
--10-10-10-10-10-10-10-10---|--8--8--8--8--8--8--8--8----|
--9--9--9--9--9--9--9--9----|--9--9--9--9--9--9--9--9----|
--10-10-10-10-10-10-10-10---|--10-10-10-10-10-10-10-10---|
----------------------------|----------------------------|
----------------------------|----------------------------|


----------------------------|--13~--|----------------------------|--13~15~--|
----------------------------|-------|-----------10-------12------|----------|
--12-------12-------12------|-------|--12------------------------|----------|
-----10-------10-------10---|-------|-----10-------10-------10---|----------|
--------14-------14---------|-------|--------14-------14---------|----------|
----------------------------|-------|----------------------------|----------|


--17L--|--17----------------------------------17-18-17------|--15---|
-------|----------------------------------------------------|-------|
-------|----------------------------------------------------|-------|
-------|----------------------------------------------------|-------|
-------|----------------------------------------------------|-------|
-------|----------------------------------------------------|-------|


--15L15-15L15-15L15-15L15---|----------------------------|
-----13L13-13L13-13L13-13---|--13~---------13h15-17h15---|
----------------------------|----------------------------|
----------------------------|----------------------------|
----------------------------|----------------------------|
----------------------------|----------------------------|


----------------------------|----------------------------|
--13~---------15----13------|--13~---------13-15-17-15---|
-----------------16----16---|----------------------------|
----------------------------|----------------------------|
----------------------------|----------------------------|
----------------------------|----------------------------|


----------------------------|----------------------------|
--13~---------15----13------|--13~---------13h15-17h15---|
-----------------16----16---|----------------------------|
----------------------------|----------------------------|
----------------------------|----------------------------|
----------------------------|----------------------------|


----------------------------|----------------------------|
--13~---------15----13------|--13~---------13h15-17h15---|
-----------------16----16---|----------------------------|
----------------------------|----------------------------|
----------------------------|----------------------------|
----------------------------|----------------------------|


----------------------------|
--13~-----------------------|
----------------------------|
----------------------------|
--------------xM-xM-xM-xM---|
--------------xM-xM-xM-xM---|


--------12----12-10-8-----8-------------------------|
-----------------------10---------------------------|
----------------------------------------------------|
--7M------------------------------------------------|
----------------------------------------------------|
----------------------------------------------------|


--8-----10-------8-----7----|-----10----8-----7-----8s---|--12-10-8--7----|
----------------------------|----------------------------|----------------|
--------------------10------|----------------------------|----------------|
-----7M----7M---------------|--5M----5M----5M----5M------|----------------|
--------------8M------------|----------------------------|----------------|
----------------------------|----------------------------|----------------|


--------12----12-10-8-----12------------------------|--12b15~--|--17---|--19---|
-----------------------10---------------------------|----------|-------|-------|
----------------------------------------------------|----------|-------|-------|
--7M------------------------------------------------|----------|-------|-------|
----------------------------------------------------|----------|-------|-------|
----------------------------------------------------|----------|-------|-------|


----------------------------|----------------------------|
--10-10-10-10-10-10-10-10---|--10-10-10-10-8--8--8--8----|
--9--9--9--9--9--9--9--9----|--9--9--9--9--9--9--9--9----|
--10-10-10-10-10-10-10-10---|--10-10-10-10-10-10-10-10---|
----------------------------|----------------------------|
----------------------------|----------------------------|


----------------------------|----------------------------|
--10-10-10-10-10-10-10-10---|--8--8--8--8--8--8--8--8----|
--9--9--9--9--9--9--9--9----|--9--9--9--9--9--9--9--9----|
--10-10-10-10-10-10-10-10---|--10-10-10-10-10-10-10-10---|
----------------------------|----------------------------|
----------------------------|----------------------------|


----------------------------|--13~--|----------------------------|--13~15~--|
----------------------------|-------|-----------10-------12------|----------|
--12-------12-------12------|-------|--12------------------------|----------|
-----10-------10-------10---|-------|-----10-------10-------10---|----------|
--------14-------14---------|-------|--------14-------14---------|----------|
----------------------------|-------|----------------------------|----------|

                          =  =  =  =       =  =  =  =       =  =  =  =
-------|-------|-------|-----12-13-15---|--13-15-17-12---|----------------|
--10L--|--10L--|--10---|--10------------|----------------|--13-15-17-13---|
--9L---|--9L---|--9----|----------------|----------------|----------------|
--7L---|--7L---|--7----|----------------|----------------|----------------|
--0L---|--0L---|--0----|----------------|----------------|----------------|
-------|-------|-------|----------------|----------------|----------------|

  =  =  =  =               =  =  =  =       =  =  =  =       =  =  =  =
----------------|-------|--13-15-17-12---|----------------|-----12-13-15---|
--15-17-13-12---|-------|----------------|--15-17-13-12---|--10------------|
----------------|-------|----------------|----------------|----------------|
----------------|--0----|----------------|----------------|----------------|
----------------|--0----|----------------|----------------|----------------|
----------------|--0----|----------------|----------------|----------------|

  =  =  =  =       =  =  =  =       =  =  =  =               =  =  =  =
--13-15-17-12---|----------------|----------------|-------|--13-15-17-12---|
----------------|--13-15-17-13---|--15-17-13-12---|-------|----------------|
----------------|----------------|----------------|-------|----------------|
----------------|----------------|----------------|--0----|----------------|
----------------|----------------|----------------|--0----|----------------|
----------------|----------------|----------------|--0----|----------------|

  =  =  =  =
----------------|-------|-------|-------|-------|-------|----------|-------|
--15-17-13-12---|--10L--|--10L--|--10L--|--10~--|-------|----------|-------|
----------------|-------|-------|-------|-------|-------|----------|-------|
----------------|-------|-------|-------|-------|--7L---|--7~-10~--|--9~---|
----------------|-------|-------|-------|-------|-------|----------|-------|
----------------|-------|-------|-------|-------|-------|----------|-------|


----------|-------|----------|-------|----------|-------|----------|-------|
--8~-6~---|-------|----------|-------|--8~-6~---|-------|----------|-------|
----------|-------|----------|-------|----------|-------|----------|-------|
----------|--7L---|--7~-10~--|--9~---|----------|--7L---|--7~-10~--|--9~---|
----------|-------|----------|-------|----------|-------|----------|-------|
----------|-------|----------|-------|----------|-------|----------|-------|


-------|-------|-------|----------------------------|
-------|-------|-------|----------------------------|
-------|-------|-------|----------------------------|
--8L---|--8L---|--8~---|--8M-7M-6M-5M-7M-6M-5M-4M---|
-------|-------|-------|----------------------------|
-------|-------|-------|----------------------------|


----------------------------|----------------------------|
----------------------------|----------------------------|
----------------------------|----------------------------|
--8M-7M-6M-5M-7M-6M-5M-4M---|--8M-7M-6M-5M-7M-6M-5M-4M---|
----------------------------|----------------------------|
----------------------------|----------------------------|


----------------------------|----------------------------|
----------------------------|----------------------------|
----------------------------|----------------------------|
--8M-7M-6M-5M-7M-6M-5M-4M---|--8M-7M-6M-5M-7M-6M-5M-4M---|
----------------------------|----------------------------|
----------------------------|----------------------------|


----------------------------|----------------------------|
----------------------------|----------------------------|
----------------------------|----------------------------|
--8M-7M-6M-5M-7M-6M-5M-4M---|--8M-7M-6M-5M-7M-6M-5M-4M---|
----------------------------|----------------------------|
----------------------------|----------------------------|


----------------------------|-------|
----------------------------|-------|
----------------------------|-------|
--8M-7M-6M-5M-7M-6M-5M-4M---|-------|
----------------------------|-------|
----------------------------|-------|


--------------------------------------------------------------------------------|
--------------------------------------------------------------------------------|
--------------------------------------------------------------------------------|
--------------------------------------------------8M----7M----6M----5M----7M----|
--0M----------0M-0M-0M-0M-0M----------0M----------------------------------------|
--0M----------0M-0M-0M-0M-0M----------0M----------------------------------------|


--------------------|
--------------------|
--------------------|
6M----5M----4M------|
--------------------|
--------------------|


--------------------------------------------------------------------------------|
--------------------------------------------------------------------------------|
--------------------------------------------------------------------------------|
--------------------------------------------------5-----------------------------|
--0M----------0M-0M-0M-0M-0M----------0M----------------------------------------|
--0M----------0M-0M-0M-0M-0M----------0M----------------------------------------|


--------------------|
--------------------|
--------------------|
--------------------|
--------------------|
--------------------|


--------------------------------------------------------------------------------|
--------------------------------------------------------------------------------|
--------------------------------------------------------------------------------|
--------------------------------------------------8M----7M----6M----5M----7M----|
--0M----------0M-0M-0M-0M-0M----------0M----------------------------------------|
--0M----------0M-0M-0M-0M-0M----------0M----------------------------------------|


--------------------|
--------------------|
--------------------|
6M----5M----4M------|
--------------------|
--------------------|


--------------------------------------------------------------------------------|
--------------------------------------------------------------------------------|
--------------------------------------------------8-----------------------------|
--------------------------------------------------0-----------------------------|
--0M----------0M-0M-0M-0M-0M----------0M----------6-----------------------------|
--0M----------0M-0M-0M-0M-0M----------0M----------0-----------------------------|


--------------------|
--------------------|
--------------------|
--------------------|
--------------------|
--------------------|


--------------------------------------------------------------------------------|
--------------------------------------------------------------------------------|
--------------------------------------------------------------------------------|
--------------------------------------------------------------------------------|
--0M----------0M-0M-0M-0M-0M----------0M----------0M----------0M-0M-0M-0M-0M----|
--0M----------0M-0M-0M-0M-0M----------0M----------0M----------0M-0M-0M-0M-0M----|


--------------------|
--------------------|
--------------------|
--------------------|
------0M------------|
------0M------------|


--------------------------------------------------------------------------------|
--------------------------------------------------------------------------------|
--------------------------------------------------------------------------------|
--------------------------------------------------------------------------------|
--------------0M-0M-0M-0M-0M----------0M----------0M----0M----0M----------0M----|
--------------0M-0M-0M-0M-0M----------0M----------0M----0M----0M----------0M----|


--------------------|
--------------------|
--------------------|
--------------------|
0M----0M------------|
0M----0M------------|


--------------------------------------------------------------------------------|
--------------------------------------------------------------------------------|
--------------------------------------------------------------------------------|
--------------------------------------------------------------------------------|
--0M----------0M-0M-0M-0M-0M----------0M----------0M----------0M-0M-0M-0M-0M----|
--0M----------0M-0M-0M-0M-0M----------0M----------0M----------0M-0M-0M-0M-0M----|


--------------------|
--------------------|
--------------------|
--------------------|
------0M------------|
------0M------------|


--------------------------------------------------------------------------------|
--------------------------------------------------------------------------------|
--------------------------------------------------------------------------------|
--------------------------------------------------------------------------------|
--------------0M-0M-0M-0M-0M----------0M----------0M----------------------------|
--------------0M-0M-0M-0M-0M----------0M----------0M----------------------------|


--------------------|
--------------------|
--------------------|
--------------------|
--------------------|
--------------------|


--------------------------------------------------------------------------------|
--------------------------------------------------------------------------------|
--------------------------------------------------------------------------------|
--------------------------------------------------------------------------------|
--0M----------0M-0M-0M-0M-0M----------0M----------0M----------0M-0M-0M-0M-0M----|
--0M----------0M-0M-0M-0M-0M----------0M----------0M----------0M-0M-0M-0M-0M----|


--------------------|
--------------------|
--------------------|
--------------------|
------0M------------|
------0M------------|


--------------------------------------------------------------------------------|
--------------------------------------------------------------------------------|
--------------------------------------------------------------------------------|
--------------------------------------------------------------------------------|
--------------0M-0M-0M-0M-0M----------0M----------0M----0M----0M----------0M----|
--------------0M-0M-0M-0M-0M----------0M----------0M----0M----0M----------0M----|


--------------------|
--------------------|
--------------------|
--------------------|
0M----0M------------|
0M----0M------------|


--------------------------------------------------------------------------------|
--------------------------------------------------------------------------------|
--------------------------------------------------------------------------------|
--------------------------------------------------------------------------------|
--0M----------0M-0M-0M-0M-0M----------0M----------0M----------0M-0M-0M-0M-0M----|
--0M----------0M-0M-0M-0M-0M----------0M----------0M----------0M-0M-0M-0M-0M----|


--------------------|
--------------------|
--------------------|
--------------------|
------0M------------|
------0M------------|


--------------------------------------------------------------------------------|
--------------------------------------------------------------------------------|
--------------------------------------------------------------------------------|
--------------------------------------------------------------------------------|
--------------0M-0M-0M-0M-0M----------0M----------0M----0M----0M----------0M----|
--------------0M-0M-0M-0M-0M----------0M----------0M----0M----0M----------0M----|


--------------------|
--------------------|
--------------------|
--------------------|
0M----0M------------|
0M----0M------------|


--------------------------------------------------------------------------------|
--------------------------------------------------------------------------------|
--------------------------------------------------------------------------------|
--------------------------------------------------------------------------------|
--0M----------0M-0M-0M-0M-0M----------0M----------0M----------0M-0M-0M-0M-0M----|
--0M----------0M-0M-0M-0M-0M----------0M----------0M----------0M-0M-0M-0M-0M----|


--------------------|
--------------------|
--------------------|
--------------------|
------0M------------|
------0M------------|


--------------------------------------------------------------------------------|
--------------------------------------------------------------------------------|
--------------------------------------------------------------------------------|
--------------------------------------------------------------------------------|
--------------0M-0M-0M-0M-0M----------0M----------0M----0M----0M----------0M----|
--------------0M-0M-0M-0M-0M----------0M----------0M----0M----0M----------0M----|


--------------------|
--------------------|
--------------------|
--------------------|
0M----0M------------|
0M----0M------------|


--------------------------------------------------------------------------------|
--------------------------------------------------------------------------------|
--------------------------------------------------------------------------------|
--------------------------------------------------------------------------------|
--0M----------0M-0M-0M-0M-0M----------0M----------0M----------0M-0M-0M-0M-0M----|
--0M----------0M-0M-0M-0M-0M----------0M----------0M----------0M-0M-0M-0M-0M----|


--------------------|
--------------------|
--------------------|
--------------------|
------0M------------|
------0M------------|


--------------------------------------------------------------------------------|
--------------------------------------------------------------------------------|
--------------------------------------------------------------------------------|
--------------------------------------------------------------------------------|
--------------0M-0M-0M-0M-0M----------0M----------2-----2-----2-----------3-----|
--------------0M-0M-0M-0M-0M----------0M----------2-----2-----2-----------3-----|


--------------------|-------||
--------------------|-------||
--------------------|-------||
--------------------|-------||
3-----3-------------|-------||
3-----3-------------|-------||
___________________________________________________________
________________________________________________________________________
__________________________________________________________________________________
______________________________________________________________________________________________
Title: Tainted Wounds
SubTitle: https://www.facebook.com/pages/Shadow-Of-The-Martyr/116941348486934
Artist: Shadow Of The Martyr
Album: Venom For A Dark Heart
Words: Sofia A.
Music: John T. Quest D. Orion J. & Matt O.
Copyright: Shadow Of The Martyr
Tempo = 150
Rhythm Guitar (Orion)

Legend
L - tied note
x - dead note
h - hammer on/pull off
b - bend
s - slide
~ - vibrato
g - ghost note
> - accentuated note
t - trill
M - palm mute
. - staccato
P - popping (bass)
S - slapping (bass)
+ - tapping
W - wide vibrato
< - fade in
w - whammy bar
= - tremolo picking
v - brush up
^ - brush down
V - pick stroke up
n - pick stroke down


D |-------|-------|-------|-------|-------|-------|-------|
A |-------|-------|-------|-------|-------|-------|-------|
F |-------|-------|-------|-------|-------|-------|-------|
C |-------|-------|-------|-------|-------|-------|--7----|
G |-------|-------|-------|-------|-------|-------|--7----|
C |-------|-------|-------|-------|-------|-------|--7----|


----------------------------|-------|----------------------------|-------|
----------------------------|-------|----------------------------|-------|
----------------------------|-------|----------------------------|-------|
--7--7--7--7--3-------------|--5----|--5--5--5--5--5--5--5--5----|--7----|
--7--7--7--7--3-------------|--5----|--5--5--5--5--5--5--5--5----|--7----|
--7--7--7--7--3-------------|--5----|--5--5--5--5--5--5--5--5----|--7----|


----------------------------|-------|----------------------------|
----------------------------|-------|----------------------------|
----------------------------|-------|----------------------------|
--7--7--7--7--3-------------|--5----|--5--5--5--5--5--5--5--5----|
--7--7--7--7--3-------------|--5----|--5--5--5--5--5--5--5--5----|
--7--7--7--7--3-------------|--5----|--5--5--5--5--5--5--5--5----|


----------------------------|----------------------------|
----------------------------|----------------------------|
----------------------------|----------------------------|
----------------------------|----------------------------|
--7--7--7--7--7--7--7--7----|--7--7--7--7--3--3--3--3----|
--7--7--7--7--7--7--7--7----|--7--7--7--7--3--3--3--3----|


----------------------------|----------------------------|
----------------------------|----------------------------|
----------------------------|----------------------------|
----------------------------|----------------------------|
--5--5--5--5--5--5--5--5----|--5--5--5--5--5--5--5--5----|
--5--5--5--5--5--5--5--5----|--5--5--5--5--5--5--5--5----|


----------------------------|----------------------------|
--------------3--3--3--3----|--------------5--5--5--5----|
--------------2--2--2--2----|--------------4--4--4--4----|
--0--0--0--0--0--0--0--0----|--0--0--0--0--2--2--2--2----|
--0--0--0--0--0--0--0--0----|--0--0--0--0--2--2--2--2----|
--0--0--0--0--0--0--0--0----|--0--0--0--0--2--2--2--2----|


----------------------------|----------------------------|-------|
----------------------------|----------------------------|-------|
----------------------------|----------------------------|-------|
----------------------------|----------------------------|--7L---|
--3--3--3--3--3--3--3--3----|--3--3--3--3--3--3--3--3----|--7L---|
--3--3--3--3--3--3--3--3----|--3--3--3--3--3--3--3--3----|--7L---|


--12s10s12------|-------|--7s-10---|-------|----------------------------|
----------------|-------|----------|-------|----------------------------|
----------------|-------|----------|-------|----------------------------|
--7-------------|--5L---|--5-------|--3----|----------------------------|
--7-------------|--5L---|--5-------|--3----|--14-14-14-14-14-14-14-14---|
--7-------------|--5L---|--5-------|--3----|--14-14-14-14-14-14-14-14---|


-------|-------|-------|----------------------------|-------|
-------|-------|-------|----------------------------|-------|
-------|-------|-------|----------------------------|-------|
-------|-------|--7----|--7--7--7--7--3-------------|--5----|
--14---|-------|--7----|--7--7--7--7--3-------------|--5----|
--14---|-------|--7----|--7--7--7--7--3-------------|--5----|


----------------------------|-------|----------------------------|-------|
----------------------------|-------|----------------------------|-------|
----------------------------|-------|----------------------------|-------|
--5--5--5--5--5--5--5--5----|--7----|--7--7--7--7--3-------------|--5L---|
--5--5--5--5--5--5--5--5----|--7----|--7--7--7--7--3-------------|--5L---|
--5--5--5--5--5--5--5--5----|--7----|--7--7--7--7--3-------------|--5L---|


-------|--------------17h12-15h12-17h12-15h12---------------|
-------|--18h10-17h10-------------------------18h10-17h10---|
-------|----------------------------------------------------|
--5----|----------------------------------------------------|
--5----|----------------------------------------------------|
--5----|----------------------------------------------------|


--------------17h12-15h12-17h12-15h12---------------|
--18h10-17h10-------------------------18h10-17h10---|
----------------------------------------------------|
----------------------------------------------------|
----------------------------------------------------|
----------------------------------------------------|


----------------------------------------------------|
--18h10-17h10-15h10-17h10-20h10-18h10-17h10-15h10---|
----------------------------------------------------|
----------------------------------------------------|
----------------------------------------------------|
----------------------------------------------------|


----------------------------------------------------|
--18h10-17h10-15h10-17h10-22h10-20h10-18h10-17h10---|
----------------------------------------------------|
----------------------------------------------------|
----------------------------------------------------|
----------------------------------------------------|


----------------------------|----------------------------|
----------------------------|----------------------------|
----------------------------|----------------------------|
----------------------------|----------------------------|
--7--7--7--7--7--7--7--7----|--7--7--7--7--3--3--3--3----|
--7--7--7--7--7--7--7--7----|--7--7--7--7--3--3--3--3----|


----------------------------|----------------------------|
----------------------------|----------------------------|
----------------------------|----------------------------|
----------------------------|----------------------------|
--5--5--5--5--5--5--5--5----|--5--5--5--5--5--5--5--5----|
--5--5--5--5--5--5--5--5----|--5--5--5--5--5--5--5--5----|


----------------------------|----------------------------|
--------------3--3--3--3----|--------------5--5--5--5----|
--------------2--2--2--2----|--------------4--4--4--4----|
--0--0--0--0--0--0--0--0----|--0--0--0--0--2--2--2--2----|
--0--0--0--0--0--0--0--0----|--0--0--0--0--2--2--2--2----|
--0--0--0--0--0--0--0--0----|--0--0--0--0--2--2--2--2----|


----------------------------|----------------------------|-------|-------|
----------------------------|----------------------------|-------|-------|
----------------------------|----------------------------|-------|-------|
----------------------------|----------------------------|-------|-------|
--3--3--3--3--3--3--3--3----|--3--3--3--3--3--3--3--3----|--0L---|--0L---|
--3--3--3--3--3--3--3--3----|--3--3--3--3--3--3--3--3----|-------|-------|


-------|-------|----------------------------------------------------|
-------|-------|----------------------------------------------------|
-------|-------|----------------------------------------------------|
-------|-------|----------------------------------------------------|
--0L---|--0----|--7M----7M-7M-7M----7M----7M----7M-7--7M----7M------|
-------|-------|--7M----7M-7M-7M----7M----7M----7M-7M-7M----7M------|


----------------------------------------------------|
----------------------------------------------------|
----------------------------------------------------|
----------------------------------------------------|
--7M----7M-7M-7M----7M----7M----7M-7--7M----7M------|
--7M----7M-7M-7M----7M----7M----7M-7M-7M----7M------|


----------------------------------------------------|
----------------------------------------------------|
----------------------------------------------------|
----------------------------------------------------|
--5M----5M-5M-5M----5M----5M----5M-5M-5M----5M------|
--5M----5M-5M-5M----5M----5M----5M-5M-5M----5M------|


----------------------------------------------------|
----------------------------------------------------|
----------------------------------------------------|
----------------------------------------------------|
--5M----5M-5M-5M----5M----5M----5M-5M-5M----5M------|
--5M----5M-5M-5M----5M----5M----5M-5M-5M----5M------|


----------------------------------------------------|
----------------------------------------------------|
----------------------------------------------------|
----------------------------------------------------|
--3M----3M-3M-3M----3M----3M----3M-3M-3M----3M------|
--3M----3M-3M-3M----3M----3M----3M-3M-3M----3M------|


----------------------------------------------------|
----------------------------------------------------|
----------------------------------------------------|
----------------------------------------------------|
--2M----2M-2M-2M----2M----2M----2M-2M-2M----2M------|
--2M----2M-2M-2M----2M----2M----2M-2M-2M----2M------|


----------------------------------------------------|
----------------------------------------------------|
----------------------------------------------------|
----------------------------------------------------|
--3M----3M-3M-3M----3M----3M----3M-3M-3M----3M------|
--3M----3M-3M-3M----3M----3M----3M-3M-3M----3M------|


----------------------------------------------------|-------|
----------------------------------------------------|-------|
----------------------------------------------------|-------|
----------------------------------------------------|--7----|
--2M----2M-2M-2M----2M----xM----xM----xM----xM------|--7----|
--2M----2M-2M-2M----2M----xM----xM----xM----xM------|--7----|


----------------------------|-------|----------------------------|-------|
----------------------------|-------|----------------------------|-------|
----------------------------|-------|----------------------------|-------|
--7--7--7--7--3-------------|--5----|--5--5--5--5--5--5--5--5----|--7----|
--7--7--7--7--3-------------|--5----|--5--5--5--5--5--5--5--5----|--7----|
--7--7--7--7--3-------------|--5----|--5--5--5--5--5--5--5--5----|--7----|


----------------------------|-------|----------------------------|
----------------------------|-------|----------------------------|
----------------------------|-------|----------------------------|
--7--7--7--7--3-------------|--5----|--5--5--5--5--5--5--5--5----|
--7--7--7--7--3-------------|--5----|--5--5--5--5--5--5--5--5----|
--7--7--7--7--3-------------|--5----|--5--5--5--5--5--5--5--5----|


----------------------------|----------------------------|
----------------------------|----------------------------|
----------------------------|----------------------------|
----------------------------|----------------------------|
--7--7--7--7--7--7--7--7----|--7--7--7--7--3--3--3--3----|
--7--7--7--7--7--7--7--7----|--7--7--7--7--3--3--3--3----|


----------------------------|----------------------------|
----------------------------|----------------------------|
----------------------------|----------------------------|
----------------------------|----------------------------|
--5--5--5--5--5--5--5--5----|--5--5--5--5--5--5--5--5----|
--5--5--5--5--5--5--5--5----|--5--5--5--5--5--5--5--5----|


----------------------------|----------------------------|
--------------3--3--3--3----|--------------5--5--5--5----|
--------------2--2--2--2----|--------------4--4--4--4----|
--0--0--0--0--0--0--0--0----|--0--0--0--0--2--2--2--2----|
--0--0--0--0--0--0--0--0----|--0--0--0--0--2--2--2--2----|
--0--0--0--0--0--0--0--0----|--0--0--0--0--2--2--2--2----|


----------------------------|----------------------------|-------|-------|
----------------------------|----------------------------|-------|-------|
----------------------------|----------------------------|-------|-------|
----------------------------|----------------------------|-------|-------|
--3--3--3--3--3--3--3--3----|--3--3--3--3--3--3--3--3----|--0----|--0----|
--3--3--3--3--3--3--3--3----|--3--3--3--3--3--3--3--3----|-------|-------|


----------------------------|----------------------------|
----------------------------|----------------------------|
----------------------------|----------------------------|
----------------------------|--------15-------15----15---|
--7--7--xM-xM-xM-xM-7--7----|----------------------------|
--7--7--xM-xM-xM-xM-7--7----|--12-12----12-12----12------|


----------------------------|----------------------------|
----------------------------|----------------------------|
----------------------------|----------------------------|
--------14-------14----14---|--------10-------10----10---|
----------------------------|----------------------------|
--10-10----10-10----10------|--7--7-----7--7-----7-------|


----------------------------|-------|----------------------------|
----------------------------|-------|----------------------------|
----------------------------|-------|----------------------------|
--------9--------9-----9----|--0----|--------14-------10---------|
----------------------------|--0----|----------------------------|
--5--5-----5--5-----5-------|--0----|--10-10----7--7-----7--7----|


----------------------------|----------------------------|
----------------------------|----------------------------|
----------------------------|----------------------------|
--------9--------9-----9----|--------15-------15----15---|
----------------------------|----------------------------|
--5--5-----5--5-----5-------|--12-12----12-12----12------|


----------------------------|----------------------------|
----------------------------|----------------------------|
----------------------------|----------------------------|
--------14-------14----14---|--------10-------10----10---|
----------------------------|----------------------------|
--10-10----10-10----10------|--7--7-----7--7-----7-------|


----------------------------|-------|----------------------------|
----------------------------|-------|----------------------------|
----------------------------|-------|----------------------------|
--------9--------9-----9----|--0----|--------14-------10---------|
----------------------------|--0----|----------------------------|
--5--5-----5--5-----5-------|--0----|--10-10----7--7-----7--7----|


----------------------------|-------|-------|-------|-------|-------|-------|
----------------------------|-------|-------|-------|-------|-------|-------|
----------------------------|-------|-------|-------|-------|-------|-------|
--------9--------9-----9----|--7L---|--7L---|--7L---|--7----|--3L---|--3----|
----------------------------|--7L---|--7L---|--7L---|--7----|--3L---|--3----|
--5--5-----5--5-----5-------|--7L---|--7L---|--7L---|--7----|--3L---|--3----|


-------|-------|-------|-------|-------|-------|-------|-------|-------|-------|
-------|-------|-------|-------|-------|-------|-------|-------|-------|-------|
-------|-------|-------|-------|-------|-------|-------|-------|-------|-------|
--2L---|--2----|--3L---|--3----|--2L---|--2----|--3L---|--3----|--2----|--0L---|
--2L---|--2----|--3L---|--3----|--2L---|--2----|--3L---|--3----|--2----|--0L---|
--2L---|--2----|--3L---|--3----|--2L---|--2----|--3L---|--3----|--2----|--0L---|


-------|-------|-------|-------|-------|-------|-------|-------|-------|
-------|-------|-------|-------|-------|-------|-------|-------|-------|
-------|-------|-------|-------|-------|-------|-------|-------|-------|
--0L---|--0L---|--0L---|--0L---|--0L---|--0----|-------|-------|-------|
--0L---|--0L---|--0L---|--0L---|--0L---|--0----|--0----|--0----|--0----|
--0L---|--0L---|--0L---|--0L---|--0L---|--0----|--0----|--0----|--0----|


----------------------------|-------|
----------------------------|-------|
----------------------------|-------|
----------------------------|-------|
--8M-7M-6M-5M-7M-6M-5M-4M---|-------|
--8M-7M-6M-5M-7M-6M-5M-4M---|-------|


--------------------------------------------------------------------------------|
--------------------------------------------------------------------------------|
--------------------------------------------------------------------------------|
--------------------------------------------------8M----7M----6M----5M----7M----|
--0M----------0M-0M-0M-0M-0M----------0M----------------------------------------|
--0M----------0M-0M-0M-0M-0M----------0M----------------------------------------|


--------------------|
--------------------|
--------------------|
6M----5M----4M------|
--------------------|
--------------------|


--------------------------------------------------------------------------------|
--------------------------------------------------------------------------------|
--------------------------------------------------------------------------------|
--------------------------------------------------------------------------------|
--0M----------0M-0M-0M-0M-0M----------0M----------------------------------------|
--0M----------0M-0M-0M-0M-0M----------0M----------------------------------------|


--------------------|
--------------------|
--------------------|
--------------------|
--------------------|
--------------------|


--------------------------------------------------------------------------------|
--------------------------------------------------------------------------------|
--------------------------------------------------------------------------------|
--------------------------------------------------8M----7M----6M----5M----7M----|
--0M----------0M-0M-0M-0M-0M----------0M----------------------------------------|
--0M----------0M-0M-0M-0M-0M----------0M----------------------------------------|


--------------------|
--------------------|
--------------------|
6M----5M----4M------|
--------------------|
--------------------|


--------------------------------------------------------------------------------|
--------------------------------------------------------------------------------|
--------------------------------------------------------------------------------|
--------------------------------------------------------------------------------|
--0M----------0M-0M-0M-0M-0M----------0M----------------------------------------|
--0M----------0M-0M-0M-0M-0M----------0M----------------------------------------|


--------------------|
--------------------|
--------------------|
--------------------|
--------------------|
--------------------|


--------------------------------------------------------------------------------|
--------------------------------------------------------------------------------|
--------------------------------------------------------------------------------|
--------------------------------------------------------------------------------|
--0M----------0M-0M-0M-0M-0M----------0M----------0M----------0M-0M-0M-0M-0M----|
--0M----------0M-0M-0M-0M-0M----------0M----------0M----------0M-0M-0M-0M-0M----|


--------------------|
--------------------|
--------------------|
--------------------|
------0M------------|
------0M------------|


--------------------------------------------------------------------------------|
--------------------------------------------------------------------------------|
--------------------------------------------------------------------------------|
--------------------------------------------------------------------------------|
--------------0M-0M-0M-0M-0M----------0M----------0M----0M----0M----------0M----|
--------------0M-0M-0M-0M-0M----------0M----------0M----0M----0M----------0M----|


--------------------|
--------------------|
--------------------|
--------------------|
0M----0M------------|
0M----0M------------|


--------------------------------------------------------------------------------|
--------------------------------------------------------------------------------|
--------------------------------------------------------------------------------|
--------------------------------------------------------------------------------|
--0M----------0M-0M-0M-0M-0M----------0M----------0M----------0M-0M-0M-0M-0M----|
--0M----------0M-0M-0M-0M-0M----------0M----------0M----------0M-0M-0M-0M-0M----|


--------------------|
--------------------|
--------------------|
--------------------|
------0M------------|
------0M------------|


--------------------------------------------------------------------------------|
--------------------------------------------------------------------------------|
--------------------------------------------------------------------------------|
--------------------------------------------------------------------------------|
--------------0M-0M-0M-0M-0M----------0M----------0M----------------------------|
--------------0M-0M-0M-0M-0M----------0M----------0M----------------------------|


--------------------|-------|----------|-------|-------|-------|----------|
--------------------|-------|----------|-------|-------|-------|----------|
--------------------|-------|----------|-------|-------|-------|----------|
--------------------|--7L---|--7~-10~--|--9~---|--8~---|--7L---|--7~-10~--|
--------------------|-------|----------|-------|-------|-------|----------|
--------------------|-------|----------|-------|-------|-------|----------|


-------|----------------------------------------------------|-------||
-------|----------------------------------------------------|-------||
-------|----------------------------------------------------|-------||
--9~---|--8~------------------------------------------------|-------||
-------|--------------------------2--2--2-----3--3--3-------|-------||
-------|--------------------------2--2--2-----3--3--3-------|-------||
Tap to rate this tab
 
# A B C D E F G H I J K L M N O P Q R S T U V W X Y Z