Song name
# A B C D E F G H I J K L M N O P Q R S T U V W X Y Z

Misc Unsigned Bands - Steriotic - Steriotic tab

https://soundcloud.com/project-18-3/steriotic-project-18-3
https://facebook.com/WeAreSteriotic

This is a decently well-rounded song that is most popular by band. But it's pretty good, 
not too difficult, and fun to mess around with.

BASICS:

Intro/Chorus:
Chords - Em, G, C - Em, G, C, G

Rhythm Guitar Intro/Chorus:
e|--------------------------------------------------------|
B|------------------3h5p3p0------------------3h5p3p0- <---|Usually mess around
G|-----------5-55--------------------555------------------|  and improvise this
D|-2-22-5-55-5-55----------2-22-5-55-555-5----------------|  part.
A|-2-22-5-55-3-33----------2-22-5-55-333-5----------------|
E|/0-00-3-33---------------0-00-3-33-----3----------------|

Bass:
G|----------------------------------------------------|
D|----------------------------------------------------|
A|-----------3-33--12-10--------------333----12-10-12-|
E|-0-00-3-33-------------12-0-00-3-33-----3-----------|

*The bass is very interchangeable. Fun to improvise.

Verse 1:
Chords - Em, G, C, D - Em, G, C, D/D#

Rhythm Guitar 2:
e|-----------------------------------------------------------------------|
B|-----------------------------------------------------------------------|
G|-----------------5---5---7-7-7777-----------------5---5---7-b77777777--|
D|-2---2---5---5---5--5-5--7-7-7777-2---2---5---5---5--5-5--7-b77777777--|
A|-2--2-2--5--5-5--3-3---3-5-5-5555-2--2-2--5--5-5--3-3---3-5-b55555555--|
E|-0-0---0-3-3---3------------------0-0---0-3-3---3----------------------|

Bass:
G|-----------------------------------------------------------------------|
D|---------------------------------------------------------------12------|
A|-----------------------------------------------------------12----10----|
E|0-000-3-3333-8-8888-10-101010101010-0-0000-3-3333-8-8888-10--10----8/1-|


Verse 2:
Chords - Em, G, C, Bm - Em, G, C, D/D#


Rhythm Guitar 3:
e|-----------------------------0240--------------------------------------|
B|-------------------------5-5-5555--------------------------------------|
G|-----------------5---5---4-4-4444-----------------5---5---7-b77777777--|
D|-2---2---5---5---5--5-5--4-4-4444-2---2---5---5---5--5-5--7-b77777777--|
A|-2--2-2--5--5-5--3-3---3-2-2-2222-2--2-2--5--5-5--3-3---3-5-b55555555--|
E|-0-0---0-3-3---3------------------0-0---0-3-3---3----------------------|

Bass:
G|-----------------------------------------------------------------------|
D|--------------------------------------------------------12-------------|
A|----------------------------------------------------12----10-----------|
E|0-000-3-3333-8-8888-7-777777-0-0000-3-3333-8-8888-10--10----8/1--------|

Solo (Not Uploaded Yet) [Not very difficult, but played mainly in "E"]


Bridge/Outro - Aren't very difficult, follow mainly the same Em, G, C / Em, G, C, G chords.
Tap to rate this tab
# A B C D E F G H I J K L M N O P Q R S T U V W X Y Z