Song name
# A B C D E F G H I J K L M N O P Q R S T U V W X Y Z

Misc Unsigned Bands - Jordan Holloway - Tell Me Youre Real tab

Tell Me You're Real
Jordan Holloway
Daylight Savings


|------------------------------------------3---------------3-----------------------------|
|----------1---------------1-----------------3---------------3-------------1-------------|
|------0-----0---0-----0-----0---0-----0---------0-----0---------0-----2-----2---2-----2-|
|----2---2-----2-----2---2-----2---------0-----0---------0-----0-----2---2-----2-----2---|
|--3---------------3-----------------2---------------2-------------0---------------0-----|
|----------------------------------3---------------3-------------------------------------|


|--------------------1---------------1-------|
|----1-----------1-----1---1-----1-----1---1-|
|------2---2---2---2-----2-----2---2-----2---|
|--2-----2---3---------------3---------------|
|--------------------------------------------|
|--------------------------------------------|

This is just repeated throughout the entire song, have fun!
Tap to rate this tab
# A B C D E F G H I J K L M N O P Q R S T U V W X Y Z