Song name
# A B C D E F G H I J K L M N O P Q R S T U V W X Y Z

Misc Unsigned Bands - Stained Angel - Zombie tab

-------------------------------------------------------------------------------
                            Zombie  Stained Angel
-------------------------------------------------------------------------------
Tabbed by: Alexander Sergeichuk
E-mail: zergo.am@gmail.com

Tuning: drop B

Tab for my favorite cover of "Zombie" (originally performed by "Cranberries") - 
easy and fun to play.

(Though this song is played in drop B, it actually can be played in drop D exept 
few insignificant moments - just transpose this tab 3 steps down.)


Intro:

1st guitar

C#|-----------------------------------------------|
G#|-----------------------------------------------|
E |--------------------------6--6--66--66--6--66--|
B |-17\---3--3--33--33--3--336--6--66--66--6--66--|
F#|-17\---3--3--33--33--3--334--4--44--44--4--44--|
B |-17\---3--3--33--33--3--33---------------------|
    
 
C#|---------------------------------------|
G#|---------------------------------------|
E |--------------------8--8--88--88-------|
B |-6--6--66--66--6--668--8--88--88--15\--|
F#|-6--6--66--66--6--666--6--66--66--15\--|
B |-6--6--66--66--6--66--------------15\--|


2nd guitar

C#|--8---8---8---8-9-8---8---8---8-9-6---6---6---6---9---9---8---8\--|
G#|----9---9---9-------9---9---9-------9---9---8---8---8---8---8-----|
E |-----------------------------------------------------------=------|
B |------------------------------------------------------------------|
F#|------------------------------------------------------------------|
B |------------------------------------------------------------------|



Verse ("But you see..."):

C#|------------------------------------------|
G#|------------------------------------------|
E |---------------------6-6--xxxx--x6--xxxx--|
B |-3-3--xxxx--x3--xxxx-6-6--xxxx--x6--xxxx--|
F#|-3-3--xxxx--x3--xxxx-4-4--xxxx--x4--xxxx--|
B |-3-3--xxxx--x3--xxxx----------------------|
  

C#|------------------------------------------|
G#|------------------------------------------|
E |---------------------8-8--xxxx--x8--xxxx--|
B |-6-6--xxxx--x6--xxxx-8-8--xxxx--x8--xxxx--|
F#|-6-6--xxxx--x6--xxxx-6-6--xxxx--x6--xxxx--|
B |-6-6--xxxx--x6--xxxx----------------------|


C#|------------------------------|
G#|------------------------------|
E |---------6----------------8---|
B |----3----6----6-----------8---|
F#|----3----4----6-----------6---|
B |----3---------6---------------|
     (x8) (x8) (x8)        (x9)
  |-mute strings after-| 
  |-every chord--------|


Chorus:

C#|------------------------------------------|
G#|------------------------------------------|
E |---------------------6--6--66--66--6--66--|
B |--3--3--33--33--3--336--6--66--66--6--66--|
F#|--3--3--33--33--3--334--4--44--44--4--44--|
B |--3--3--33--33--3--33---------------------|
    
 
C#|------------------------------------|
G#|------------------------------------|
E |-----------------------8--8---------|
B |--6--6--66--66--6--66--8--8--1-1-1--|
F#|--6--6--66--66--6--66--6--6--1-1-1--|
B |--6--6--66--66--6--66--------1-1-1--|


C#|------------------------------------------|
G#|------------------------------------------|
E |---------------------6--6--66--66--6--66--|
B |--3--3--33--33--3--336--6--66--66--6--66--|
F#|--3--3--33--33--3--334--4--44--44--4--44--|
B |--3--3--33--33--3--33---------------------|
    
 
C#|--------------------------------------|
G#|--------------------------------------|
E |-----------------------8--8-----------|
B |--6--6--66--66--6--66--8--8--1-1-1-3--|
F#|--6--6--66--66--6--66--6--6--1-1-1-3--|
B |--6--6--66--66--6--66--------1-1-1-3--|



Verse (see above)


Chorus (see above)


Bridge:


C#|--------------------------------|
G#|--------------------------------|
E |--------------------------------|
B |--3--3-5-6--6-5-8--8-6-11--10\--|
F#|--3--3-5-6--6-5-8--8-6-11--10\--|
B |--3--3-5-6--6-5-8--8-6-11--10\--|


C#|--------------------------------|
G#|--------------------------------|
E |--------------------------------|
B |--3--3-5-6--6-5-8--8-6-11--13\--|
F#|--3--3-5-6--6-5-8--8-6-11--13\--|
B |--3--3-5-6--6-5-8--8-6-11--13\--|



Here goes intro part, then play


C#|-----------------------------------|
G#|-----------------------------------|
E |---------6----------------8----9\--|
B |----3----6----6-----------8----9\--|
F#|----3----4----6-----------6----7\--|
B |----3---------6--------------------|
    (x8) (x8) (x8)        (x16) (x9)
  |-mute strings after-| 
  |-every chord--------|



Chorus/ending:

C#|------------------------------------------|
G#|------------------------------------------|
E |---------------------8--8--88--88--8--88--|
B |--5--5--55--55--5--558--8--88--88--8--88--|
F#|--5--5--55--55--5--556--6--66--66--6--66--|
B |--5--5--55--55--5--55---------------------|
    
 
C#|-------------------------------------|
G#|-------------------------------------|
E |-----------------------10-10---------|
B |--8--8--88--88--8--88--10-10--3-3-3--|
F#|--8--8--88--88--8--88--8--8---3-3-3--|
B |--8--8--88--88--8--88---------3-3-3--|


C#|---------------------------------------|
G#|---------------------------------------|
E |---------8----------------10-----------|
B |----5----8----8-----------10--3-3-3-5--|
F#|----5----6----8-----------8---3-3-3-5--|
B |----5---------8---------------3-3-3-5--|
    (x8) (x8) (x8)        (x6)
  |-mute strings after-| 
  |-every chord--------|




That's all.
Tap to rate this tab
# A B C D E F G H I J K L M N O P Q R S T U V W X Y Z