Song name
# A B C D E F G H I J K L M N O P Q R S T U V W X Y Z

Misc Unsigned Bands - Amulet Of Passage - Mirak Destroyer Ov Harmony tab

Drop D tuning

Intro hippo al
E-----------------------------------------|
b-----------------------------------------|
g---4-4h5p4-2---4-4h5p4-2---3-2~3---3-2~3-|
d--2-----------2-----------2-------2------|
a-0-----------0-----------1-------1-------|
d-----------------------------------------|

E-----------------------------------------|
b-----------------------------------------|
g---4-4h5p4-2---4-4h5p4-2---3-2~3---3-2-0-|
d--2-----------2-----------2-------2------|
a-0-----------0-----------1-------1-------|
d-----------------------------------------|

Verse
E--------------------------------|
b--------------------------------|
g-16-16-16-17-16--16-16-16-17-16-|
d-14-14-14-14-14--14-14-14-14-14-|
a-12-12-12-12-12--12-12-12-12-12-|
d-12-12-12-12-12--12-12-12-12-12-|
  D  D  D  U  D  D  D  D  U  D

E--------------------------------|
b--------------------------------|
g-15-15-15-14-15--15-15-15-14-15-|
d-14-14-14-14-14--14-14-14-14-14-|
a-13-13-13-13-13--13-13-13-13-13-|
d--------------------------------|
  D  D  D  U  D   D  D  D  U  D

Pre-Chorus
E-------------------------|
b-------------------------|
g-------------------------|
d-------------------------|
a-------------------------|
d-121212-111111-101010-9/-|

Chorus mordicool
E--------------------------------|
b--------------------------------|
g---4----------------------------|
d-2-2--------6--------4--------6-|
a-0-0------4-4------2-2------4-4-|
d----------4-4------2-2------4-4-|
  .        .        .        .

Chorus Hippo al
E------------------------------------|
b------------------------------------|
g----4-------------------------------|
d-----2--------6--------4--------6---|
a------0--------4--------2--------4--|
d----------------4--------2--------4-|

Pre-Verse
E-----------|
b-----------|
g-----------|
d-----------|
a-0000-0000-|
d-0000-0000-|
  .... ....

Sorry Hippo al's solo can't be replicated
strums might not be exact but all chords are 100% right

Legend
h-hammer on
p-pull off
D- down strum
U-up strum
...-palm mute
/-slide
~-vibrato
Tap to rate this tab
# A B C D E F G H I J K L M N O P Q R S T U V W X Y Z