Song name
# A B C D E F G H I J K L M N O P Q R S T U V W X Y Z

Misc Unsigned Bands - Bend The Clouds - Glad Shes Gone tab

Bend The Clouds
Glad She's Gone

Intro (after 8 counts of drums)
e|-------------------------|
B|-------------------------|
G|-------------------------|
D|-------------------2-2-2-|
A|-------------2-2-2-2-2-2-|
E|-0-0-0-0-0-0-0-0-0-0-0-0-|
   * * * * * * * * * * * *
e|-----0~----0~-----------------|
B|-----3~----3~-----------------|
G|-----1~----1~-----------------|x2
D|-----2~----2~-5-5-5-5-7-7-7-7-|
A|--------------5-5-5-5-7-7-7-7-|
E|-0-0---0-0----3-3-3-3-5-5-5-5-|
   * *   * *

Verse
e|-----0~----0~-----------------|
B|-----3~----3~-----------------|
G|-----1~----1~-----------------|x5
D|-----2~----2~-5-5-5-5-7-7-7-7-|
A|--------------5-5-5-5-7-7-7-7-|
E|-0-0---0-0----3-3-3-3-5-5-5-5-|
   * *   * *

Bridge
e|---------------------------------|
B|---------------------------------|
G|---------------------------------|x1
D|-4-4-4-4-4-4-4-4-4-4-4-4-4-4-4-4-|
A|-2-2-2-2-2-2-2-2-2-2-2-2-2-2-2-2-|
E|---------------------------------|

Chorus
Guitar 1
e|---------------------------------|
B|---------------------------------|
G|-9-9-9-9-9-9-9-9-----------14^-12|x4
D|-9-9-9-9-9-9-9-9-5-5-5-5---------|
A|-7-7-7-7-7-7-7-7-5-5-5-5---------|
E|-----------------3-3-3-3---------|
Guitar 2
e|---------------------------------|
B|---------------------------------|
G|---------------------------------|x4
D|-2-2-2-2-2-2-2-2-5-5-5-5-7-7-----|
A|-2-2-2-2-2-2-2-2-5-5-5-5-7-7-----|
E|-0-0-0-0-0-0-0-0-3-3-3-3-5-5-----|

Re-intro
Let each note ring for 4 counts
Drums to a roll back into chorus
Guitar 1
e|-------------------------|
B|-------------------------|
G|-9~------9~------9~------|
D|-9~------9~------9~------|
A|-7~------7~------7~------|
E|-------------------------|

Guitar 2
e|-------------------------|
B|-------------------------|
G|-------------------------|
D|-2~------2~------2~------|
A|-2~------2~------2~------|
E|-0~------0~------0~------|

Song Order

Intro
Verse
Bridge
Chorus
Verse
Bridge
Chorus
Bridge
Chorus/Solo (in key E minor)
Bridge
Re-intro
Chorus
Verse
Tap to rate this tab
# A B C D E F G H I J K L M N O P Q R S T U V W X Y Z