Song name
# A B C D E F G H I J K L M N O P Q R S T U V W X Y Z

Misc Unsigned Bands - A Direst Desire - Heart Reason tab

----------------------------------------------------------------------
HEART & REASON - a Direst Desire
----------------------------------------------------------------------
Tabbed by: Michael Beatson
Email: michaeljbeatson@gmail.com

Tuning: EADGBe 
Capo: 1st Fret

####################################################################
ALL TABS ARE AS SEEN ON NECK DOTS, NOT IN RELATION TO CAPO POSITION.
####################################################################


Intro: Guitar 1

e|--0--0--0--0--0--0--0--0--|
B|--0--0--0--0--0--0--0--0--|
G|-10-10-10-10-10-10-10-10--|
D|--8-10--8-10--8-10--8-10--|
A|--0--8--0--8--0--8--0--8--|
E|--0--0--0--0--0--0--0--0--|


Intro: Guitar 2

e|-----------------------------------------------------------------------|
B|------------------------------------------------------13---13-15--15---|
G|--------10h12-12br--10-12/15-14---------10h12-12br--10---10-----17--17-|
D|--10h12---------------------------10h12--------------------------------|
A|-----------------------------------------------------------------------|
E|-----------------------------------------------------------------------|

e|-----------------------------------------------------------------------|
B|-----------------------------------------------------------------------|
G|--------10h12-12br--10-12/15-14---------10h12-12br-12-10---9---10------|
D|--10h12---------------------------10h12--------------------------------|
A|-----------------------------------------------------------------------|
E|-----------------------------------------------------------------------|




Verse 1: Guitar 1: Same as Intro.


Chorus 1: Guitar 1

e|--0--0--0----0--0--0--|
B|--0--0--0----0--0--0--|
G|-10-10--5---10-10--5--|
D|--8--7--5----8--7--5--|
A|--0--8--3----0--8--3--|
E|--0--0-------0--0-----|



Verse 2: Guitar 1: Same as Intro.


Verse 2: Guitar 2

e|--0----------------------------------------------------------|
B|--0----------------------------------------------------------|
G|-10---10vv--9--7---10vv--9--12-15---1515\14-14\12-12/14-14----1515\14-14/10-10
D|--8----------------------------------------------------------|
A|--0----------------------------------------------------------|
E|--0----------------------------------------------------------|

e|-----------------------------------------------------------------------|
B|-----------------------------------------------------------------------|
G|--1515\14-14\12-12/14-14----1515\14-14/10-10------1010-----10--101210--|
D|---------------------------------------------10h12----10h12--12--------|
A|-----------------------------------------------------------------------|
E|-----------------------------------------------------------------------|

Pre-Chorus: Guitar 1: Same as Intro.


Pre-Chorus: Guitar 2: 

e|-------------------------------------------------------------|
B|------1313-----13--13/15-------------------------------------|
G|--9h10-----9h10--10-----14-------1010------10--101210--------| x2
D|----------------------------10h12-----10h12--12--------------|
A|-------------------------------------------------------------|
E|-------------------------------------------------------------|



Chorus 2: Guitar 1: Same as 1st.


Chorus 2: Guitar 2

e|-------------------------------------------------------------|
B|--111111111111-101010101010-13\\8-88-/13\\88-8-1010-8----x2--|
G|-------------------------------------------------------------|
D|-------------------------------------------------------------|
A|--<----tremolo picking---->----------------------------------|
E|-------------------------------------------------------------|

e|-------------------------------------------------------------|
B|--11b11b11b11b-10b10b10b10b-13\\8-88-/13\\88-8-1010-8----x2--|
G|-------------------------------------------------------------|
D|-------------------------------------------------------------|
A|-------------------------------------------------------------|
E|-------------------------------------------------------------|



Post Chorus: Guitar 1

e|--0--|
B|--0--|
G|-10--|
D|--8--|
A|--0--|
E|--0--|



Bridge: Guitar 1

e|--0---0----0---0----0---0--0---0---0--|
B|--0---0----0---0----0---0--0---0---0--|
G|-10--10---10--10---10--10-12--10---9--|
D|--8--10----8--10----8--10-10---7--10--|
A|--0---8----0---8----0---8--x---8---7--|
E|--0---0----0---0----0---0--8---0------|


Bridge: Guitar 2 (same as intro but 2nd & 4th progression swapped)

e|-----------------------------------------------------------------------|
B|-----------------------------------------------------------------------|
G|--------10h12-12br--10-12/15-14---------10h12-12br-12-10---9---10------|
D|--10h12---------------------------10h12--------------------------------|
A|-----------------------------------------------------------------------|
E|-----------------------------------------------------------------------|

e|-----------------------------------------------------------------------|
B|------------------------------------------------------13---13-15--15---|
G|--------10h12-12br--10-12/15-14---------10h12-12br--10---10-----17--17-|
D|--10h12---------------------------10h12--------------------------------|
A|-----------------------------------------------------------------------|
E|-----------------------------------------------------------------------|



Outro: Guitar 1: Same as Intro.


************************************

| /   slide up
| \   slide down
| h   hammer-on
| p   pull-off
| ~   vibrato
| +   harmonic
| x   Mute note
| b   Bend
| pb  Pre-bend
| br  Bend release
| pbr Pre-bend release
| brb Bend release bend

************************************
Tap to rate this tab
# A B C D E F G H I J K L M N O P Q R S T U V W X Y Z