Song name
# A B C D E F G H I J K L M N O P Q R S T U V W X Y Z

Misc Unsigned Bands - A Direst Desire - His Salvation Is Sin tab

-------------------------------------------------------------------------------
        HIS SALVATION IS SIN - a Direst Desire
-------------------------------------------------------------------------------
Tabbed by: Michael Beatson
E-mail: michaeljbeatson@gmail.com

Tuning: DGCFAd (Full Step Down)

Sounds a bit different to recorded track in places, this is how it's played live.


Intro: 

Guitar 1:
d|---------------------------------------------------------------------------|
A|---------------------------------------------------------------------------|
F|---------------------------------------------------------------------------|
C|---------------------------------------------------------------------------|
G|---------------------------------------------------------------------------|
D|-/12-0-0-000-10h12-00-8h10-10b10b10b----12-0-0-000-10h12-00-8h10-10b10b10b-|

d|---------------------------------------------------------------------------|
A|---------------------------------------------------------------------------|
F|---------------------------------------------------------------------------|
C|-1010101010101010101010101010101010--5555555555555555-7--777777------------|
G|-1010101010101010101010101010101010--5555555555555555-7--777777------------|
D|--8-8-8-8-8-8-8-8-8-8-8-8-8-8-8-8-8--3333333333333333-5--555555--0-2b--/---|


Guitar 2: Repeated

d|---------------101010-1212b12b1313r12---------------101010-1212b12b1313r12-|
A|-101010-121212------------------------101010-121212------------------------|
F|---------------------------------------------------------------------------|
C|---------------------------------------------------------------------------|
G|---------------------------------------------------------------------------|
D|---------------------------------------------------------------------------|


Verse 1:

Guitar 1: Palm Muted with stops in some parts

d|---------------------------------------------------------------------------|
A|---------------------------------------------------------------------------|
F|---------------------------------------------------------------------------|
C|---------------------------------------------------------------------------|
G|--222-2222-55555555-222-55555-000-55555------------------------------------|
D|--000-3333-77777777-333-77777-222-55555------------------------------------|


Pre Chorus:

Guitar 1: Same as Verse. PM'd

Guitar 2:

d|--------------------------------------------------------------5------------|
A|--787775777777777-787775777777777-787775777777777-787775777777-77----------|
F|---------------------------------------------------------------------------|
C|---------------------------------------------------------------------------|
G|---------------------------------------------------------------------------|
D|---------------------------------------------------------------------------|


Verse 2:

Guitar 1: Same as Verse. PM'd

Guitar 2: Same as Pre Chorus.


Pre Chorus 2:

Guitar 1: Same as Verse but open strumming.

Guitar 2: 

d|------------------------------5---------------7----------7--10--12---------|
A|--787775777777777-787775777777-77-787775777777-77-7877757-78--78--10-------|
F|---------------------------------------------------------------------------|
C|---------------------------------------------------------------------------|
G|---------------------------------------------------------------------------|
D|---------------------------------------------------------------------------|


Instrumental Break:

Guitar 1: x2

d|---------------------------------------------------------------------------|
A|--101010-1212121212b12b13131313r12--101010-1212121212b12b13131313r12-------|
F|---------------------------------------------------------------------------|
C|---------------------------------------------------------------------------|
G|---------------------------------------------------------------------------|
D|---------------------------------------------------------------------------|


Guitar 2: x1

d|--101010-1212121212b12b13131313r12--101010-1212121212b12b13131313r12-------|
A|---------------------------------------------------------------------------|
F|---------------------------------------------------------------------------|
C|---------------------------------------------------------------------------|
G|---------------------------------------------------------------------------|
D|---------------------------------------------------------------------------|


Chorus 1:

Guitar 1: Same as Intro. 2nd time through just ring outs and not strumming. 

d|---------------------------------------------------------------------------|
A|---------------------------------------------------------------------------|
F|---------------------------------------------------------------------------|
C|---------------------------------------------------------------------------|
G|---------------------------------------------------------------------------|
D|-/12-0-0-000-10h12-00-8h10-10b10b10b----12-0-0-000-10h12-00-8h10-10b10b10b-|

d|---------------------------------------------------------------------------|
A|---------------------------------------------------------------------------|
F|---------------------------------------------------------------------------|
C|---------------------------------------------------------------------------|
G|--1010101010101010101010101010101010-5555555555555555-7--777777------------|
D|---8-8-8-8-8-8-8-8-8-8-8-8-8-8-8-8-8-3333333333333333-5--555555--0-2b--/---|


Guitar 2:

d|---------------------------------------------------------------------------|
A|-101010-12br12br12-------------------1212br-101010-12br12br12--------------|
F|------------------101010-12br12br-9-9------------------------10101099b10r9-|
C|---------------------------------------------------------------------------|
G|---------------------------------------------------------------------------|
D|---------------------------------------------------------------------------|

d|---------------------------------------------------------------------------|
A|-101010-12br12br12-------------------1212br-101010-12br12br12--------------|
F|------------------101010-12br12br-9-9------------------------10101099b10r9-|
C|---------------------------------------------------------------------------|
G|---------------------------------------------------------------------------|
D|---------------------------------------------------------------------------|

             (Slight Bends vvvv)
d|---------------------------------------------------------------------------|
A|---------------------------------------------------------------------------|
F|-10b---9b--7b----10b---9b--7b----10b---12b--7b----10b---9b--7b-------------|
C|----------------------------------------------------------------10b10b10b--|
G|---------------------------------------------------------------------------|
D|---------------------------------------------------------------------------|


Verse 3:

Guitar 1: Same as First Verse.

Guitar 2: Same as Pre Chorus 2.


Pre Chorus:

Guitar 1: Same as Verse with Open Strumming.

Guitar 2: Same as Pre Chorus 2.


Chorus 2:

Guitar 1: Same as Intro x2. 

Guitar 2: 

d|---------------------------------------------------------------------------|
A|-101010-12br12br12-------------------1212br-101010-12br12br12--------------|
F|------------------101010-12br12br-9-9------------------------10101099b10r9-|
C|---------------------------------------------------------------------------|
G|---------------------------------------------------------------------------|
D|---------------------------------------------------------------------------|

d|---------------------------------------------------------------------------|
A|-101010-12br12br12-------------------1212br-101010-12br12br12--------------|
F|------------------101010-12br12br-9-9------------------------10101099b10r9-|
C|---------------------------------------------------------------------------|
G|---------------------------------------------------------------------------|
D|---------------------------------------------------------------------------|

d|---------------151515-1717b17b1818r17---------------151515-1717b17b1818r17-|
A|-151515-171717------------------------151515-171717------------------------|
F|---------------------------------------------------------------------------|
C|---------------------------------------------------------------------------|
G|---------------------------------------------------------------------------|
D|---------------------------------------------------------------------------|

d|---------------151515-1717b17b1818r17---------------151515-1717b17b1818r17-|
A|-151515-171717------------------------151515-171717------------------------|
F|---------------------------------------------------------------------------|
C|---------------------------------------------------------------------------|
G|---------------------------------------------------------------------------|
D|---------------------------------------------------------------------------|


Outro:

Guitar 1: Same as Intro with Chord Ring Outs.

Guitar 2:

             (Slight Bends vvvv)
d|---------------------------------------------------------------------------|
A|---------------------------------------------------------------------------|
F|-10b---9b--8b----10b---9b--8b----10b---12b--8b----10b---9b--8b-------------|
C|----------------------------------------------------------------10b10b10b--|
G|---------------------------------------------------------------------------|
D|---------------------------------------------------------------------------|


************************************

| /   slide up
| \   slide down
| h   hammer-on
| p   pull-off
| ~   vibrato
| +   harmonic
| x   Mute note
| b   Bend
| pb  Pre-bend
| br  Bend release
| pbr Pre-bend release
| brb Bend release bend

************************************
Tap to rate this tab
# A B C D E F G H I J K L M N O P Q R S T U V W X Y Z