Song name
# A B C D E F G H I J K L M N O P Q R S T U V W X Y Z

Misc Unsigned Bands - Old Man Canyon - Wiser chords

Highlighted       Show chord diagrams
This is an amazing song from a band that needs a lot more recognition. Anyway, 
here's the chords as I hear them, hopes it matches!

Chords (relative to capo):

      Am        C         F         G
e|----0----|----0----|----0----|----3----| 
B|----1----|----1----|----1----|----0----| 
G|----2----|----0----|----2----|----0----| 
D|----2----|----2----|----3----|----0----| 
A|----0----|----3----|----3----|----2----|
E|----0----|----0----|----0----|----3----)


Standard tuning
Capo on 1


(Chorus)

 Am        C      F        C
When I'm wiser and grown taller 
Am      C        F        F
I will see your ways 
Am              C       F             C
And when I've come to the places i'm going
Am       C        F       F 
I will know your ways 


(bridge)

      Am          C         Am         F
e|--0-------|--0-------|--0-------|--0-------| 
B|----1--1--|----1--1--|----1--1--|----1--1--| 
G|-------2--|-------0--|-------2--|-------2--| 
D|-------2--|-------2--|-------2--|-------3--| 
A|----------|-------3--|----------|-------3--|
E|----------|----------|----------|----------)

(Single strum C  G)
Am                                                C
I can feel the hurt now. I can turn this pain to blame 
F                                                            C
I'm trying to see it clear but I don't know why its hear at all

(Single strum C G) 
Am                                             
You can keep yourself down as long as you want now 
    C
But do ya 
F                                                           C
You can push it on another but damn that mans your brother now 

(Single strum G)

 Am        C      F        C
When I'm wiser and grown taller 
 Am     C        F      F
I will see your ways 

(bridge)

      Am          C         Am         F
e|--0-------|--0-------|--0-------|--0-------| 
B|----1--1--|----1--1--|----1--1--|----1--1--| 
G|-------2--|-------0--|-------2--|-------2--| 
D|-------2--|-------2--|-------2--|-------3--| 
A|----------|-------3--|----------|-------3--|
E|----------|----------|----------|----------)


 Am                 C
All my heart I'll follow 
 F            C
try until we all glow 
  Am                C             F           F
We'll shine like diamonds in the rough
 Am                C              F          C 
All my heart I'll follow take me back I'll show you 
 Am                 C              F        F
We'll shine like diamonds in the rough 

    G         F            C          F               C          G      
But Oh the journey's been long I've learned and I've lost on the way 
 G     F           C    F             C          G
Go and be who you are shine like the sun on the stars  

G C

 Am        C      F        C
When I'm wiser and grown taller 
Am      C        F        F
I will see your ways 
Am              C       F             C
And when I've come to the places i'm going
Am       C     (End On F)  
I will know your ways 

(Chorus x2)

Thank you and rate fairly!
Tap to rate this tab
# A B C D E F G H I J K L M N O P Q R S T U V W X Y Z