Song name
# A B C D E F G H I J K L M N O P Q R S T U V W X Y Z

Misc Unsigned Bands - Francis Lung - A Selfish Man tab

Artist: Francis Lung
Song: A Selfish Man
Tabbed by: gustavoaraujo999@hotmail.com

**3:39 is maybe only one guitar.
**I haven't tabbed it all, but the rest is considerably harder. Might as well share it.
        
== GUITAR ONE (LEAD) ==

0:15
e|------11-----13--------------------11--13--------------------|
B|----9-----------16---------------9--------16-----13----------|
G|-10----------------15---------10-------------15--------------|
D|-------------------------------------------------------------|
A|-------------------------------------------------------------|
E|-------------------------------------------------------------|

0:31
e|-11-------------------------8----------------------------------|
B|-------9----11----9----9-11---11-9----9------------------------|
G|----10---10----10------------------10--------------------------|
D|---------------------------------------------------------------|
A|---------------------------------------------------------------|
E|---------------------------------------------------------------|

0:45
e|---------------------------------------------------------------|
B|----9-11-11/13\11-9-------9-11-11/13\11-9----9-----------------|
G|-10-----------------10--------------------10-------------------|
D|---------------------------------------------------------------|
A|---------------------------------------------------------------|
E|---------------------------------------------------------------|

e|-11------------------------------------------------------------|
B|-------9----11----9----9-11-11/13\11-9-------------------------|
G|----10---10----10----------------------10----------------------|
D|---------------------------------------------------------------|
A|---------------------------------------------------------------|
E|---------------------------------------------------------------|

1:43
e|---------------------------------------------------------------|
B|----9-11-11/13\11-9-------9-11-11/13\11-9----9-----------------|
G|-10-----------------10--------------------10-------------------|
D|---------------------------------------------------------------|
A|---------------------------------------------------------------|
E|---------------------------------------------------------------|

e|-11---8---11---11/13-------------------------------------------|
B|----9---9----9-------13-----9-11-11/13\11-9--------------------|
G|--------------------------------------------10-----------------|
D|---------------------------------------------------------------|
A|---------------------------------------------------------------|
E|---------------------------------------------------------------|

e|---------------------------------------------------------------|
B|----9-11-11/13\11-9-------9-11-11/13\11-9----9-----------------|
G|-10-----------------10--------------------10-------------------|
D|---------------------------------------------------------------|
A|---------------------------------------------------------------|
E|---------------------------------------------------------------|

e|-11---8---11---11/13-------------------------------------------|
B|----9---9----9-------13-----9-11-11/13---9---9h11p9------------|
G|---------------------------------------------------------------|
D|---------------------------------------------------------------|
A|---------------------------------------------------------------|
E|---------------------------------------------------------------|

3:39
e|-13-13--13-16-13-16-13-13--13-16-13-16-13-13--13-16-13-16-13-13|
B|---------------------------------------------------------------|
G|---------------------------------------------------------------|
D|---------------------------------------------------------------|
A|---------------------------------------------------------------|
E|---------------------------------------------------------------|

e|-16--20--16--18--16-16-16---16--20--16--18--16-16-16-----------|
B|---------------------------------------------------------------|
G|---------------------------------------------------------------|
D|---------------------------------------------------------------|
A|---------------------------------------------------------------|
E|---------------------------------------------------------------|

== GUITAR TWO (RHYTHM) ==

0:00
e|------------------------------------------------------------------|
B|-11-11-9---11-1111-9-----13-13-11---13-1313-11--------------------|
G|-10-10-8---10-1010-8-----12-12-10---12-1212-10--------------------|
D|------------------------------------------------------------------|
A|--this varies in rhythm and plays throughout most of the song-----|
E|------------------------------------------------------------------|

1:58
e|-11-11-11-11-9-8-----------------------------------------------|
B|-----------------11--------------------------------------------|
G|---------------------------------------------------------------|
D|---------------------------------------------------------------|
A|---------------------------------------------------------------|
E|---------------------------------------------------------------|

3:39
e|---------------------------------------------------------------|
B|-13---16-14-13--13--16-14-13--13--16-14-13--13--16-14-13--13/--|
G|---------------------------------------------------------------|
D|---------------------------------------------------------------|
A|---------------------------------------------------------------|
E|---------------------------------------------------------------|

e|---------------------------------------------------------------|
B|-/16--16--16--16---20-18-16---16--16--16---20-18-16------------|
G|---------------------------------------------------------------|
D|---------------------------------------------------------------|
A|---------------------------------------------------------------|
E|---------------------------------------------------------------|
Tap to rate this tab
 
# A B C D E F G H I J K L M N O P Q R S T U V W X Y Z