Song name
# A B C D E F G H I J K L M N O P Q R S T U V W X Y Z

Misc Unsigned Bands - A Direst Desire - Shadow And Light tab

-------------------------------------------------------------------------------
                             SHADOW AND LIGHT - a Direst Desire
-------------------------------------------------------------------------------
Tabbed by: Michael Beatson
E-mail: michaeljbeatson@gmail.com

Tuning: EADGBe


Intro: Guitar 1

e|---------------------------------------------------------------------------|
B|---------------------------------------------------------------------------|
G|---------------------------------------------------------------------------|
D|------0------0------0------9-----------------------------------------------|
A|----10-10--10-10--10-10--10-10-----------x2--------------------------------|
E|--10-----10-----10-----10--------------------------------------------------|


Verse 1: Guitar 1

e|-------------------------------------------------------------------------------|
B|-------------------------------------------------------------------------------|
G|----------------------------------------------------------------------------0--|
D|------0------0------0------9-----------0-----0-----0-----9------0-----0----0---|
A|----10-10--10-10--10-10--10-10--x2---10-10-10-10-10-10-10-10--10-10-10-10-7----|
E|--10-----10-----10-----10-----------8-----8-----8-----8------7-----7-----5-----|

Verse 1: Guitar 2

e|---------------------------------------------------------------------------|
B|----------------------------------------------------------12\\10-----------|
G|--7//12------7//12--12\11--11//14----7//12---------7//12----------12\\11---|
D|---------------------------------------------------------------------------|
A|---------------------------------------------------------------------------|
E|---------------------------------------------------------------------------|


Instrumental: Guitar 1

e|------------3---------------------------------------------------------------|
B|------------0---------------------------------------------------------------|
G|--0-0-0-0---0---------------------------------------------------------------|
D|--0-0-0-0---0--------x2-----------------------------------------------------|
A|--5-5-5-5-\-2---------------------------------------------------------------|
E|--7-7-7-7-\-3---------------------------------------------------------------|

Instrumental: Guitar 2

e|---------------------------------------------------------------------------|
B|--5*-7*----7*--5*-7*----7*--5*-7*----7*--5*-5*-5*-5*-----------------------|
G|--------5*-----------5*-----------5*------------------------x2-------------|
D|---------------------------------------------------------------------------|
A|---------------------------------------------------------------------------|
E|---------------------------------------------------------------------------|


Verse 2: Guitar 1

e|---------------3------------------------------------------------------------|
B|---------------0------------------------------------------------------------|
G|-----0---------0------------------------------------------------------------|
D|----0----0----0-----Repeated------------------------------------------------|
A|---5----5-5--2--------------------------------------------------------------|
E|--7----5----3---------------------------------------------------------------|

Verse 2: Guitar 2

e|---------------------------------------------------------------------------|
B|----------7*------5*-------------------------------------------------------|
G|--7*-5*------5*------5*--neck bend detune-----x4---------------------------|
D|---------------------------------------------------------------------------|
A|---------------------------------------------------------------------------|
E|---------------------------------------------------------------------------|


Chorus 1: Guitar 1

e|---------------------------------------------------------------------------|
B|---------------------------------------------------------------------------|
G|---------------------------------------------------------------------------|
D|-----9-7---9-7---9-7---9-7---0-----0-----0-----0---------------------------|
A|---10----10----10----10----10-10-10-10-10-10-10-10-------------------------|
E|--0-----0-----0-----0-----8-----8-----8-----8------------------------------|

e|---------------------------------------------------------------------------|
B|---------------------------------------------------------------------------|
G|---------------------------------------------------------------------------|
D|-----9-7---9-7---9-7---9-7---0-----0------0------0-------------------------|
A|---10----10----10----10----10-10-10-10--10-10--10-10-----------------------|
E|--0-----0-----0-----0-----8-----8-----10-----10----------------------------|

Chorus 1: Guitar 2: improvise.


Post Chorus: Guitar 1: Same as Verse 1.

        or chords: G, Em, (D) C, (B) A, D.

Post Chorus: Guitar 2

e|---------------------------------------------------------------------------|
B|---------------------------------------------------------------------------|
G|--12--12--14--11--------x2-------------------------------------------------|
D|---------------------------------------------------------------------------|
A|-----tremolo picking-------------------------------------------------------|
E|---------------------------------------------------------------------------|


Verse 3: Guitar 1: Same as Verse 1.

Verse 3: Guitar 2: Same as Verse 1.

Instrumental 2: Same as First, both guitars.

Chorus 2: Guitar 1: Same as Chorus 1

Chorus 2: Guitar 2: Same as Chorus 1 but PM'd.
        Chords: Em, C, Em, C/D


Bridge: Guitar 1

e|--3---3---0---0-0----------------------------------------------------------|
B|--3---3---0---3-5----------------------------------------------------------|
G|--0---0---7---0-0----------------------------------------------------------|
D|--0---2---7---2-4-----------Repeated---------------------------------------|
A|--2---2---5---3-5----------------------------------------------------------|
E|--3---0--------------------------------------------------------------------|

Bridge: Guitar 2

    G             Em              D             C    D
e|---------15-14--12------15-14--10-----15-14--------------------------------|
B|--12-----------------------------------------13---12--10-------------------|
G|--------------------------------------------------------------x2-----------|
D|---------------------------------------------------------------------------|
A|--------Tremolo Pickng-----------------------------------------------------|
E|---------------------------------------------------------------------------|



************************************

| /   slide up
| \   slide down
| h   hammer-on
| p   pull-off
| ~   vibrato
| +   harmonic
| x   Mute note
| b   Bend
| pb  Pre-bend
| br  Bend release
| pbr Pre-bend release
| brb Bend release bend

************************************
Tap to rate this tab
# A B C D E F G H I J K L M N O P Q R S T U V W X Y Z