Song name
# A B C D E F G H I J K L M N O P Q R S T U V W X Y Z

Misc Unsigned Bands - A Direst Desire - Ddk tab

-------------------------------------------------------------------------------
                             DDK - a Direst Desire
-------------------------------------------------------------------------------
Tabbed by: Michael Beatson
E-mail: michaeljbeason@gmail.com

Tuning: EADGBe
Capo 4th Fret


Intro: Guitar 1

e|--3----3----3----3----3----3----0----3--3----------------------------------|
B|--3----3----3----3----3----3----0----3--3----------------------------------|
G|--0----0----0----0----0----0----2----0--0----------------------------------|
D|--2----2----0----2----2----2----2----0--0----------------------------------|
A|--2----2----2----3----2----2----0----2--0----------------------------------|
E|--0----0----3---------0----0---------3--2----------------------------------|

Intro: Guitar 2 (in no relation to capo position)

e|---------------------------------------------------------------------------|
B|---------------------------------------------------------------------------|
G|--888888-1111-131313--88888b8b8-111111-131313------------------------------|
D|---------------------------------------------------------------------------|
A|---------------------------------------------------------------------------|
E|---------------------------------------------------------------------------|


Verse 1: Guitar 1

e|--0----0----0----0----0----0----1----1-------------------------------------|
B|--0----1----0----1----0----1----1----1-------------------------------------|
G|--2----0----2----0----2----0----2----2-------------------------------------|
D|--2----2----2----2----2----2----3----3-------------------------------------|
A|--0----3----0----3----0----3----3----3-------------------------------------|
E|---------------------------------------------------------------------------|

Verse 1: Guitar 2: Same chords PM'd in a stabby pattern.


Intro: Guitar 1 & 2: Same as first Intro.


Verse 2: Guitar 1: Same as Verse 1.

Verse 2: Guitar 2: Same as Verse 1.


Pre-Chorus: Guitar 1

e|--0----0-------------------------------------------------------------------|
B|--1----1-------------------------------------------------------------------|
G|--2----0-------------------------------------------------------------------|
D|--2----2--------x2---------------------------------------------------------|
A|--0----3-------------------------------------------------------------------|
E|---------------------------------------------------------------------------|

Pre Chorus: Guitar 2: echo notes/ringouts


Chorus 1: Guitar 1

e|-----0-------0-------0-------0---------------------------------------------|
B|-----1-------1-------3-------3---------------------------------------------|
G|-----0-------0-------0-------0---------------------------------------------|
D|--2--2----2--2----2--2----2--2---------------------------------------------|
A|--2--3----2--3----2--3----2--3---------------------------------------------|
E|--0-------0-------0-------0------------------------------------------------|

Chorus 1: Guitar 2 (in no relation to capo position)

e|-------------------------7p0-----------------------7-------7p0-------------|
B|--7h99-7-9-7-9br-7-9-79p0---7p0------7h99-7-9-7-9br--9-79p0---7p0----------|
G|---------------------------------x2--------------------------------x2------|
D|---------------------------------------------------------------------------|
A|---------------------------------------------------------------------------|
E|---------------------------------------------------------------------------|


Bridge: Guitar 1

e|---------------------------------------------------------------------------|
B|--------------3-3----------------------------------------------------------|
G|--------------0-0----------------------------------------------------------|
D|--2-2---------2-2------Repeated--------------------------------------------|
A|--2-2---------3-3----------------------------------------------------------|
E|--0-0-3-2-0-3--------------------------------------------------------------|

Bridge: Guitar 2 (in no relation to capo position)

e|---------------------------------------------------------------------------|
B|--161616161616b16b16b16br16r16r16r-----------------------------------------|
G|--131313131313b13b13b13br13r13r13r----------x4-----------------------------|
D|---------------------------------------------------------------------------|
A|------Tremolo picking slowly bending the note then releasing---------------|
E|---------------------------------------------------------------------------|

e|--------------------9-----9------------------------------------------------|
B|--7/99-7-0-5/7-0---12b14-14r12-9---7/99-7-0-5/7-0--------------------------|
G|-----------------0--------------------------------0-6brbrb-----------------|
D|-----------------------------------------------------------0-6brb----------|
A|---------------------------------------------------------------------------|
E|---------------------------------------------------------------------------|

e|--------------------9-----9-------------------------11----11---------------|
B|--7/99-7-0-5/7-0---12b14-14r12-9---7/99-7-0-5/7-0---14b16-16r14-12-14-9----|
G|-----------------0--------------------------------0------------------------|
D|---------------------------------------------------------------------------|
A|---------------------------------------------------------------------------|
E|---------------------------------------------------------------------------|

Post-Bridge: Em Ringouts


Outro: Guitar 1 & 2: Same as Intro



************************************

| /   slide up
| \   slide down
| h   hammer-on
| p   pull-off
| ~   vibrato
| +   harmonic
| x   Mute note
| b   Bend
| pb  Pre-bend
| br  Bend release
| pbr Pre-bend release
| brb Bend release bend

************************************
Tap to rate this tab
# A B C D E F G H I J K L M N O P Q R S T U V W X Y Z