Song name
# A B C D E F G H I J K L M N O P Q R S T U V W X Y Z

Misc Unsigned Bands - The Millennium - Its You chords

Highlighted       Show chord diagrams
---------------------------------------------------------------------------
                         The Millennium - It's You
---------------------------------------------------------------------------
                         Tabbed by: gutturalguitar
                         Tuning: standard

                         It's You (1968)
                         (Michael Fennelly, Joey Stec)

                         From: "Begin"
---------------------------------------------------------------------------
Please note that the guitars in the original version seem to be tuned
slightly sharp, or were (most likely) sped up. 
---------------------------------------------------------------------------
                         Asus4 (x02230)
                         Dsus2 (xx0230)
---------------------------------------------------------------------------
guitar riff #1:
e|----0--5-2-0----|
B|-----2------2---|
G|-1h2--2---------|
D|----------------|
A|----------------|
E|----------------|

guitar riff #2 (sometimes varies slightly):
e|----0-----0-----|
B|-----2--3---3---|
G|-1h2--2-4---4-2-|
D|-------4------2-|
A|--------------0-|
E|----------------|
---------------------------------------------------------------------------
 
| A |                           

(guitar riff #1 and #2)

A             Asus4        A             Asus4

looking at my only window, trying to see through

A             Asus4           A            Asus4

looking at my frosted window, dying to see through

Dsus2                    F#m    

something is covering my eyes 

| D |

     Dsus2

it's you

| A |

(guitar riff #1 and #2)

A                  Asus4             A              Asus4

is the world still turning round, or is it standing still

A                  Asus4          A               Asus4

is the sun still burning down, or has it caught a chill

Dsus2                    F#m     

something is covering my eyes

| D |

     Dsus2

it's you

C#m       F#m

you only let me see 

Bm            C#m

what you have planned for me

                 F#m     

I guess there'll never be 

Dsus2

anything more, anything more

| A |

(guitar riff #2)

A               Asus4        A               Asus4

is it wrong for me to ask of things I cannot do

A               Asus4         A                    Asus4

is it wrong for me to want to know what's false or true

Dsus2                    F#m                 

something is covering my eyes

| D |

     Dsus2

it's you

| A |

(guitar riff #1 and #2)

     Asus4

it's you

A

it's you
Tap to rate this tab
# A B C D E F G H I J K L M N O P Q R S T U V W X Y Z