Song name
# A B C D E F G H I J K L M N O P Q R S T U V W X Y Z

Misc Unsigned Bands - Connor Leavitt - The Color Lonely tab

The Color Lonely
Written and Tabbed by: Connor Leavitt

*Lyrics have not yet been created.

Tuning:Standard
Capo on 3
Tempo: 85 BPM with a Jazz- feel to the picking.
(*Frets are according to the capo, so tabbed fret 3, will be actual fret 6.)
(**The entire song is intended to be finger picked.)

Intro:
   G               D/F#            Em7             Cadd9
|------------------------------------------------------------------|
|----------0---------------0---------------0---------------1-------|
|------0-------0-------2-------2-------0-------0-------0-------0---|
|--------0---0---0-------0---0---0-------2---0---0---2---2---2---2-|
|----2---------------0---------------2-------------3---------------|
|--3---------------2---------------0-------------------------------|

   G               D/F#            Em7             Cadd9
|------------------------------------------------------------------|
|----------0---------------0---------------0---------------1-------|
|------0-------0-------2-------2-------0-------0-------0-------0---|
|--------0---0---0-------0---0---0-------2---0---0---2---2---2---2-|
|----2---------------0---------------2-------------3---------------|
|--3---------------2---------------0-------------------------------|


Verse:
G- D/F#-Em7-Cadd9

G- D/F#-Em7-Cadd9

Chorus:
G- Cadd9-Em7-Dsus4-D

G- Cadd9-Em7-Dsus4-D

Verse:
G- D/F#-Em7-Cadd9

G- D/F#-Em7-Cadd9

Chorus:
G- Cadd9-Em7-Dsus4-D

G- Cadd9-Em7-Dsus4-D

Break:
Am*- C*- G- D/F#

Am*- C*- G- D/F#

Em7- Cadd9-G-D/F#

Em7- Cadd9-Dsus4-D

Chorus:
G- Cadd9-Em7-Dsus4-D

G- Cadd9-Em7-Dsus4-D

Outro: (Intro Twice Finger-picked Through)
   G               D/F#            Em7             Cadd9
|------------------------------------------------------------------|
|----------0---------------0---------------0---------------1-------|
|------0-------0-------2-------2-------0-------0-------0-------0---|
|--------0---0---0-------0---0---0-------2---0---0---2---2---2---2-|
|----2---------------0---------------2-------------3---------------|
|--3---------------2---------------0-------------------------------|

   G               D/F#            Em7             Cadd9
|------------------------------------------------------------------|
|----------0---------------0---------------0---------------1-------|
|------0-------0-------2-------2-------0-------0-------0-------0---|
|--------0---0---0-------0---0---0-------2---0---0---2---2---2---2-|
|----2---------------0---------------2-------------3---------------|
|--3---------------2---------------0-------------------------------|


Chord Diagrams:
Verse(s) Chords:
G: 32003X
D/F#: 20023X
Em7: 02203X
Cadd9: X3203X

Chorus Chords:
G: 320033
Em7: 022033
Cadd9: X32033
Dsus4: XX0233
D: XX0232

Break Chords:
Am*: X02213
C*: X32013
G: 320033
D/F#: 200233
Em7: 022033
Cadd9: X32033
Dsus4: XX0233
D: XX0232
Tap to rate this tab
# A B C D E F G H I J K L M N O P Q R S T U V W X Y Z