Song name
# A B C D E F G H I J K L M N O P Q R S T U V W X Y Z

Misc Unsigned Bands - Daniel Arief - Misteri Diri tab

e|-11-22-11-22-11-22------------------|
B|0--0--0--0--0--0--0----0----0----0--|
G|---------------|--------------------|
D|---------------|--------------------|
A|---------------|--------------------|
E|---------------|--------------------|

e|-11-22-11-22-11-22------------------|
B|0--0--0--0--0--0--0----0----0----0--|
G|---------------|--------------------|
D|---------------|--------------------|
A|---------------|--------------------|
E|---------------|--------------------|

e|-11-22-11-22-11-22------------------|
B|0--0--0--0--0--0--0----0----0----0--|
G|---------------|--------------------|
D|---------------|--------------------|
A|---------------|--------------------|
E|---------------|--------------------|

Tuning EADGBE
Repeat infinitely.
Tap to rate this tab
# A B C D E F G H I J K L M N O P Q R S T U V W X Y Z