Song name
# A B C D E F G H I J K L M N O P Q R S T U V W X Y Z

Misc Unsigned Bands - Amulet Of Passage - Rituals tab

The Beginning song to their brutal EP


Hippo Al
E------------|
B------------|
G------------|
D-0----6-----|
A-0----6-----|
D-0----6-----|

Birdshit
E------------|
B------------|
G------------|
D------------|
A-0----6-----|
D-0----6-----|

Simple but genius

Check Amulet out on facebook

Donate to the cause

Help the local metal scene grow

Like Amulet Of Passage
Tap to rate this tab
# A B C D E F G H I J K L M N O P Q R S T U V W X Y Z