Song name
# A B C D E F G H I J K L M N O P Q R S T U V W X Y Z

Misc Unsigned Bands - Amulet Of Passage - Psikil tab

Check out Amulet Of Passage on facebook

Intro Hippo Al
E------------------------|-------------------------|
B------------------------|-------------------------|
G------------------------|-------------------------|
D------------------------|---------------------2-2-|
A-T6-T5-T2-T3-T1-T0---T1-|-T6-T5-T2-T3-T1-T0---0-0-|
D------------------------|-------------------------|

Intro Bird shit
E------------------------|-------------------------|
B------------------------|-------------------------|
G------------------------|-------------------------|
D-T6-T5-T2-T3-T1-T0---T1-|-T6-T5-T2-T3-T1-T0---2-2-|
A------------------------|---------------------0-0-|
D------------------------|-------------------------|

Verse
E-----------------------------------|
B----11----11--11-11-11-11-11-11-11-|
G-----9-----9---9--9--9--9--9--9--9-|
D-----8-----8---8--8--8--8--8--8--8-|
A-0-0---0-0---0---------------------|
D-----------------------------------|

E----------------------------------|
B-----8-----8------------8-8-8-8---|
G-----6-----6------------6-6-6-6---|
D-----5-----5------------5-5-5-5---|
A-0-0---0-0---0-0-0-0-0-0----------|
D----------------------------------|

Last time
E----------------------------------|
B-----8-----8----------------------|
G-----6-----6----------------------|
D-----5-----5----------------------|
A-0-0---0-0---0-0-0-0-0-0-7--6-----|
D-------------------------7--6-----|

Chorus Hippo Al
E-------------------------|------------------------|
B-------------------------|------------------------|
G-------------------------|------------------------|
D----------12h13p12-------|---------11h12p11-------|
A-10-13-14----------14-13-|-9-12-13----------13-12-|
D-------------------------|------------------------|

Chorus Bird shit
E-------------------------|------------------------|
B-------------------------|------------------------|
G----------12h13p12-------|---------11h12p11-------|
D-10-13-14----------14-13-|-9-12-13----------13-12-|
A-------------------------|------------------------|
D-------------------------|------------------------|

Chorus Rolv
E-------------------------|------------------------|
B--------------------------------------------------|
G-------------------------|------------------------|
D-------------------------|------------------------|
A-5-----------------------|-4----------------------|
D-5-----------------------|-4----------------------|

Rolv does all the leads and they are IMPOSSIBLE to figure out


Key
T-tremelo pick
h-hammer on
p-pull off
Tap to rate this tab
 
# A B C D E F G H I J K L M N O P Q R S T U V W X Y Z