Song name
# A B C D E F G H I J K L M N O P Q R S T U V W X Y Z

Misc Unsigned Bands - Treyarch Sounds - Abrecadavre tab

-----------------------------------------------------------------------------
                             Abracadavre - Treyarch Sound
-----------------------------------------------------------------------------
Tabbed by: Lexi_The_Rocker

This is an interesting song and is part of the Call of Duty Black Ops
Zombies soundtrack. I did my best to tab this as accurately as I can
and being the first wasn't easy so don't hate.

Tuning: The tuning is a bit bizarre but its the only way it works.
The last three chords are in standard tuning  G B E but the first three are
C G C so it would be C G C G B E
yeah i know strange

This is the intro and the main reason for the odd tuning
e|--17------17------17----17------17------18------18------20-----18---18-----|
B|-----15------15------15----15------15------15------15------15-----15--15---|
G|--------14------14------------14------14------15------15------15----15--15-|
C|---------------------------------------------------------------------------|
G|---------------------------------------------------------------------------|
C|---------------------------------------------------------------------------|
intro times 2

heavy distortion. you figure out the palm muting and speed and such
e|---------------------------------------------------------------------------|
B|---------------------------------------------------------------------------|
G|---------------------------------------------------------------------------|
C|---2-2-2--8-7-5--3-3-3--8-7-5----------X2----------------------------------|
G|---2-2-2--8-7-5--3-3-3--8-7-5----------------------------------------------|
C|---2-2-2--8-7-5--3-3-3--8-7-5----------------------------------------------|

e|---------------------------------------------------------------------------|
B|---------------------------------------------------------------------------|
G|---------------------------------------------------------------------------|
C|--------------------------------------------X6-----------------------------|
G|---------------------------------------------------------------------------|
C|---3/--10\--7\--3----------------------------------------------------------|

again figure this out yourself
e|---------------------------------------------------------------------------|
B|---------------------------------------------------------------------------|
G|---------------------------------------------------------------------------|
C|------8-9-8----------------------------------------------------------------|
G|------8-9-8----------------------------------------------------------------|
C|------8-9-8----------------------------------------------------------------|

e|---------------------------------------------------------------------------|
B|---------------------------------------------------------------------------|
G|---------------------------------------------------------------------------|
C|---8-7-5-|--2-2-2--10-10-10--0-0-0--7-7-7------------------X3--------------|
G|---8-7-5-|--2-2-2--10-10-10--0-0-0--7-7-7----------------------------------|
C|---8-7-5-|--2-2-2--10-10-10--0-0-0--7-7-7----------------------------------|

e|---------------------------------------------------------------------------|
B|---------------------------------------------------------------------------|
G|---------------------------------------------------------------------------|
C|--------------------------------------------X6-----------------------------|
G|---------------------------------------------------------------------------|
C|---3/--10\--7\--3----------------------------------------------------------|

again figure this out yourself
e|---------------------------------------------------------------------------|
B|---------------------------------------------------------------------------|
G|---------------------------------------------------------------------------|
C|------8-9-8----------------------------------------------------------------|
G|------8-9-8----------------------------------------------------------------|
C|------8-9-8----------------------------------------------------------------|

e|---------------------------------------------------------------------------|
B|---------------------------------------------------------------------------|
G|---------------------------------------------------------------------------|
C|---8-7-5-|--2-2-2--10-10-10--0-0-0--7-7-7------------------X6--------------|
G|---8-7-5-|--2-2-2--10-10-10--0-0-0--7-7-7----------------------------------|
C|---8-7-5-|--2-2-2--10-10-10--0-0-0--7-7-7----------------------------------|

e|---------------------------------------------------------------------------|
B|---------------------------------------------------------------------------|
G|---------------------------------------------------------------------------|
C|---------------------------------------------------------------------------|
G|----7-7-7-7--9-9-9-9--10-10-10-10--14-14-14-14--3-3-3-3--5-5-5-5-----------|
C|---------------------------------------------------------------------------|

e|---------------------------------------------------------------------------|
B|---------------------------------------------------------------------------|
G|---------------------------------------------------------------------------|
C|---2-2-2--8-7-5--2-2-2--8-7-5----------X2----------------------------------|
G|---2-2-2--8-7-5--2-2-2--8-7-5----------------------------------------------|
C|---2-2-2--8-7-5--2-2-2--8-7-5----------------------------------------------|

e|--17------17------17----17------17------18------18------20-----18---18-----|
B|-----15------15------15----15------15------15------15------15-----15--15---|
G|--------14------14------------14------14------15------15------15----15--15-|
C|---------------------------------------------------------------------------|
G|---------------------------------------------------------------------------|
C|---------------------------------------------------------------------------|
times 3

e|---------------------------------------------------------------------------|
B|---------------------------------------------------------------------------|
G|---------------------------------------------------------------------------|
C|---2-2-2--1-1-1--0-0-0-0-0-0-----------X2----------------------------------|
G|---2-2-2--1-1-1--0-0-0-0-0-0-----------------------------------------------|
C|---2-2-2--1-1-1--0-0-0-0-0-0-----------------------------------------------|

e|---------------------------------------------------------------------------|
B|---------------------------------------------------------------------------|
G|---------------------------------------------------------------------------|
C|---2-2-2--8-7-5--3-3-3--8-7-5----------X2----------------------------------|
G|---2-2-2--8-7-5--3-3-3--8-7-5----------------------------------------------|
C|---2-2-2--8-7-5--3-3-3--8-7-5----------------------------------------------|

e|---------------------------------------------------------------------------|
B|---------------------------------------------------------------------------|
G|---------------------------------------------------------------------------|
C|---8-7-5-|--2-2-2--10-10-10--0-0-0--7-7-7------------------X6--------------|
G|---8-7-5-|--2-2-2--10-10-10--0-0-0--7-7-7----------------------------------|
C|---8-7-5-|--2-2-2--10-10-10--0-0-0--7-7-7----------------------------------|


e|-----18--15--14------------------------------------------------------------|
B|---------------------------------------------------------------------------|
G|---------------------------------------------------------------------------|
C|---------------------------------------------------------------------------|
G|---------------------------------------------------------------------------|
C|---------------------------------------------------------------------------|

Hope this was helpful. Submit some stars if it was (:

************************************

| /   slide up
| \   slide down
| h   hammer-on
| p   pull-off
| ~   vibrato
| +   harmonic
| x   Mute note
| b   Bend
| pb  Pre-bend
| br  Bend release
| pbr Pre-bend release
| brb Bend release bend

************************************
Tap to rate this tab
 
# A B C D E F G H I J K L M N O P Q R S T U V W X Y Z