Song name
# A B C D E F G H I J K L M N O P Q R S T U V W X Y Z

Misc Unsigned Bands - Bugsin - Bozkir Ninnisi tab

                             Bozkir Ninnisi
X2
e[-----------------------------------------------------------------]
B[-------0---1------3------1------0----|-----------0-------1--0----]
G[----2-----------2--------------------|----1---2------1-------2---]
D[-------------------------------------|---------------------------]
A[-------------------------------------|---------------------------]
E[---------------------- --------------|---------------------------]

e[---------------0------1---0----------|-------------------0-------------]
B[------1---3------1------------3------|--0----1----3---0-----3----1-----]
G[-------------------------------------|---------------------------------]
D[-------------------------------------|---------------------------------]
A[-------------------------------------|---------------------------------]
E[-------------------------------------|---------------------------------]
Tap to rate this tab
# A B C D E F G H I J K L M N O P Q R S T U V W X Y Z