Song name
# A B C D E F G H I J K L M N O P Q R S T U V W X Y Z

Misc Unsigned Bands - Wind In Sails - Set Adrift tab

This is just my not so great interpretation to give others an idea.
It's in standard tuning.

These are the chords used throughout the verses. Play this 4 times.
e|----0-----0-----0-----0-----0---------------------------------------|
B|----0-----0-----0-----0-----0---------------------------------------|
G|----0-----0-----0-----0-----0---------------------------------------|
D|----5-----4-----2-----0-----2---------------------------------------|
A|----7-----5-----0-----2-----3---------------------------------------|
E|--------------------------------------------------------------------|

Then at around 0:48, it sounds like this with the 3rd and 4th chords being 
strummed a little faster and in half the time.
e|----0-----0-----0-----0--------------------------------------------|
B|----0-----0-----0-----0--------------------------------------------|
G|----0-----0-----0-----0--------------------------------------------|
D|----4-----2-----0-----2--------------------------------------------| x1
A|----5-----3-----2-----0--------------------------------------------|
E|-------------------------------------------------------------------|

Chorus
e|----7----------------|                 |----7---------------10--|
B|--------8---10---8---|                 |---------10----8--------|
G|---------------------|                 |------------------------|
D|---------------------| x3              |------------------------| x1 ending 1
A|---------------------|                 |------------------------|
E|---------------------|                 |------------------------|

e|----7----------------|                 |----7---------------10--|
B|--------8---10---8---|                 |---------10----8--------|
G|---------------------|                 |------------------------|
D|---------------------| x3              |------------------------| x1 ending 1
A|---------------------|                 |------------------------|
E|---------------------|                 |------------------------|

e|----7----------------|                 |----7---------------10--|
B|--------8---10---8---|                 |---------10----8--------|
G|---------------------|                 |------------------------|
D|---------------------| x3              |------------------------| x1 ending 1
A|---------------------|                 |------------------------|
E|---------------------|                 |------------------------|

e|----7----------------|                 |---------7-----------------|
B|--------8---10---8---|                 |----10--------10-----8-----|
G|---------------------|                 |---------------------------|
D|---------------------| x3              |---------------------------| x1 ending 2
A|---------------------|                 |---------------------------|
E|---------------------|                 |---------------------------|


Solo
e|--------------------------------------------------------------|
B|--------------------------------------------------------------|
G|------------7--9--12--9--7--9---12s9--7~ ---7s9---------------|
D|------7--9---------------------------------------7~ ----------|
A|---7----------------------------------------------------------|
E|--------------------------------------------------------------|

e|----------------------------------------------------------------------------------------|
B|----------------------------------------10--12--12------12--------------10--------------|
G|-------7--9------7--9--12-----7--9--12----------14b16---14b16--12~---12---12--9--7--9~--|
D|--7--9---------9------------------------------------------------------------------------|
A|----------------------------------------------------------------------------------------|
E|----------------------------------------------------------------------------------------|


Then the part after the second chorus, or something to this effect and without the 
strumming pattern
e|--0--0--0--0----0--0--0--0----------------------------0---0---0---0---0---0-------|
B|--0--0--0--0----0--0--0--0----------------------------0---0---0---0---0---0-------|
G|--0--0--0--0----0--0--0--0-----4----4----2----2-------0---0---0---0---0---0-------|
D|--2-s4-s5--0----2-s4--9--7----7----7----5----5--------2--s4--s5---0---9---7-------|
A|----------------------------------------------------------------------------------|
E|----------------------------------------------------------------------------------|




************************************

| /   slide up
| \   slide down
| h   hammer-on
| p   pull-off
| ~   vibrato
| +   harmonic
| x   Mute note
| b   Bend
| pb  Pre-bend
| br  Bend release
| pbr Pre-bend release
| brb Bend release bend

************************************
Tap to rate this tab
# A B C D E F G H I J K L M N O P Q R S T U V W X Y Z